ISO-10303-21;
HEADER;
FILE_DESCRIPTION (( 'STEP AP203' ),
    '1' );
FILE_NAME ('ab32.STEP',
    '2023-02-13T09:19:11',
    ( '' ),
    ( '' ),
    'SwSTEP 2.0',
    'SolidWorks 2019',
    '' );
FILE_SCHEMA (( 'CONFIG_CONTROL_DESIGN' ));
ENDSEC;

DATA;
#1 = DIRECTION ( 'NONE',  ( 1.000000000000000000, 0.000000000000000000, 0.000000000000000000 ) ) ;
#2 = ADVANCED_FACE ( 'NONE', ( #41 ), #196, .F. ) ;
#3 = CYLINDRICAL_SURFACE ( 'NONE', #104, 9.000000000000000000 ) ;
#4 = APPROVAL_ROLE ( '' ) ;
#5 = CARTESIAN_POINT ( 'NONE',  ( -12.00000000000000178, 0.000000000000000000, 7.000000000000000000 ) ) ;
#6 = ORIENTED_EDGE ( 'NONE', *, *, #96, .T. ) ;
#7 = EDGE_CURVE ( 'NONE', #57, #214, #141, .T. ) ;
#8 = ORIENTED_EDGE ( 'NONE', *, *, #164, .F. ) ;
#9 = CARTESIAN_POINT ( 'NONE',  ( 9.000000000000000000, 1.102182119232617714E-15, 200.0000000000000000 ) ) ;
#10 = APPROVAL ( #149, 'NEURÈENÝ' ) ;
#11 = DIRECTION ( 'NONE',  ( 0.000000000000000000, 0.000000000000000000, 1.000000000000000000 ) ) ;
#12 =( LENGTH_UNIT ( ) NAMED_UNIT ( * ) SI_UNIT ( .MILLI., .METRE. ) );
#13 =( NAMED_UNIT ( * ) PLANE_ANGLE_UNIT ( ) SI_UNIT ( $, .RADIAN. ) );
#14 = ORIENTED_EDGE ( 'NONE', *, *, #28, .F. ) ;
#15 = DIRECTION ( 'NONE',  ( -0.000000000000000000, -0.000000000000000000, -1.000000000000000000 ) ) ;
#16 = COORDINATED_UNIVERSAL_TIME_OFFSET ( 1, 0, .AHEAD. ) ;
#17 = DATE_AND_TIME ( #195, #253 ) ;
#18 = DATE_TIME_ROLE ( 'classification_date' ) ;
#19 = CC_DESIGN_APPROVAL ( #202, ( #30 ) ) ;
#20 = CARTESIAN_POINT ( 'NONE',  ( 0.000000000000000000, 0.000000000000000000, 0.000000000000000000 ) ) ;
#21 = COORDINATED_UNIVERSAL_TIME_OFFSET ( 1, 0, .AHEAD. ) ;
#22 = DIRECTION ( 'NONE',  ( -0.000000000000000000, -0.000000000000000000, -1.000000000000000000 ) ) ;
#23 = PRODUCT_RELATED_PRODUCT_CATEGORY ( 'detail', '', ( #51 ) ) ;
#24 = DIRECTION ( 'NONE',  ( -0.000000000000000000, -0.000000000000000000, -1.000000000000000000 ) ) ;
#25 = LOCAL_TIME ( 10, 19, 11.00000000000000000, #78 ) ;
#26 = ORIENTED_EDGE ( 'NONE', *, *, #90, .T. ) ;
#27 = ORIENTED_EDGE ( 'NONE', *, *, #77, .F. ) ;
#28 = EDGE_CURVE ( 'NONE', #228, #219, #233, .T. ) ;
#29 = EDGE_CURVE ( 'NONE', #214, #219, #199, .T. ) ;
#30 = PRODUCT_DEFINITION_FORMATION_WITH_SPECIFIED_SOURCE ( 'LIBOVOLNÝ', '', #51, .NOT_KNOWN. ) ;
#31 = AXIS2_PLACEMENT_3D ( 'NONE', #239, #54, #108 ) ;
#32 = CARTESIAN_POINT ( 'NONE',  ( 12.00000000000000178, 1.469576158976824144E-15, 7.000000000000000000 ) ) ;
#33 = CYLINDRICAL_SURFACE ( 'NONE', #43, 12.00000000000000178 ) ;
#34 = PERSON ( 'NEURÈENÝ', 'NEURÈENÝ', 'NEURÈENÝ', ('NEURÈENÝ'), ('NEURÈENÝ'), ('NEURÈENÝ') ) ;
#35 = ORIENTED_EDGE ( 'NONE', *, *, #60, .T. ) ;
#36 = PERSON_AND_ORGANIZATION_ROLE ( 'design_supplier' ) ;
#37 = AXIS2_PLACEMENT_3D ( 'NONE', #218, #178, #89 ) ;
#38 = COORDINATED_UNIVERSAL_TIME_OFFSET ( 1, 0, .AHEAD. ) ;
#39 = DATE_AND_TIME ( #171, #25 ) ;
#40 = CALENDAR_DATE ( 2023, 13, 2 ) ;
#41 = FACE_OUTER_BOUND ( 'NONE', #236, .T. ) ;
#42 = PERSON_AND_ORGANIZATION ( #34, #232 ) ;
#43 = AXIS2_PLACEMENT_3D ( 'NONE', #145, #53, #113 ) ;
#44 = CARTESIAN_POINT ( 'NONE',  ( -9.000000000000000000, 0.000000000000000000, 200.0000000000000000 ) ) ;
#45 = DIRECTION ( 'NONE',  ( 0.000000000000000000, 0.000000000000000000, 1.000000000000000000 ) ) ;
#46 = ORIENTED_EDGE ( 'NONE', *, *, #28, .T. ) ;
#47 = ORIENTED_EDGE ( 'NONE', *, *, #55, .F. ) ;
#48 = DIRECTION ( 'NONE',  ( 0.000000000000000000, 0.000000000000000000, 1.000000000000000000 ) ) ;
#49 = ADVANCED_FACE ( 'NONE', ( #134 ), #3, .T. ) ;
#50 = ADVANCED_FACE ( 'NONE', ( #102 ), #87, .T. ) ;
#51 = PRODUCT ( 'ab32', 'ab32', '', ( #216 ) ) ;
#52 = DIRECTION ( 'NONE',  ( 0.000000000000000000, 0.000000000000000000, 1.000000000000000000 ) ) ;
#53 = DIRECTION ( 'NONE',  ( -0.000000000000000000, -0.000000000000000000, -1.000000000000000000 ) ) ;
#54 = DIRECTION ( 'NONE',  ( 0.000000000000000000, 0.000000000000000000, 1.000000000000000000 ) ) ;
#55 = EDGE_CURVE ( 'NONE', #214, #57, #168, .T. ) ;
#56 = CYLINDRICAL_SURFACE ( 'NONE', #70, 9.000000000000000000 ) ;
#57 = VERTEX_POINT ( 'NONE', #139 ) ;
#58 = CC_DESIGN_APPROVAL ( #10, ( #182 ) ) ;
#59 = SHAPE_DEFINITION_REPRESENTATION ( #144, #103 ) ;
#60 = EDGE_CURVE ( 'NONE', #250, #99, #67, .T. ) ;
#61 = DIRECTION ( 'NONE',  ( 0.000000000000000000, 0.000000000000000000, 1.000000000000000000 ) ) ;
#62 = ORIENTED_EDGE ( 'NONE', *, *, #55, .T. ) ;
#63 = APPLICATION_PROTOCOL_DEFINITION ( 'international standard', 'config_control_design', 1994, #156 ) ;
#64 = CARTESIAN_POINT ( 'NONE',  ( 0.000000000000000000, 0.000000000000000000, 7.000000000000000000 ) ) ;
#65 = VECTOR ( 'NONE', #24, 1000.000000000000000 ) ;
#66 = ORIENTED_EDGE ( 'NONE', *, *, #94, .F. ) ;
#67 = LINE ( 'NONE', #44, #254 ) ;
#68 = DIRECTION ( 'NONE',  ( 0.000000000000000000, 0.000000000000000000, 1.000000000000000000 ) ) ;
#69 = UNCERTAINTY_MEASURE_WITH_UNIT (LENGTH_MEASURE( 1.000000000000000082E-05 ), #12, 'distance_accuracy_value', 'NONE');
#70 = AXIS2_PLACEMENT_3D ( 'NONE', #190, #204, #129 ) ;
#71 = APPLICATION_PROTOCOL_DEFINITION ( 'international standard', 'config_control_design', 1994, #215 ) ;
#72 = CYLINDRICAL_SURFACE ( 'NONE', #185, 12.00000000000000178 ) ;
#73 = CARTESIAN_POINT ( 'NONE',  ( -9.000000000000000000, 0.000000000000000000, 7.000000000000000000 ) ) ;
#74 = EDGE_LOOP ( 'NONE', ( #66, #112, #124, #240 ) ) ;
#75 = CARTESIAN_POINT ( 'NONE',  ( 12.00000000000000178, 1.469576158976824144E-15, 0.000000000000000000 ) ) ;
#76 = DATE_AND_TIME ( #100, #105 ) ;
#77 = EDGE_CURVE ( 'NONE', #57, #228, #198, .T. ) ;
#78 = COORDINATED_UNIVERSAL_TIME_OFFSET ( 1, 0, .AHEAD. ) ;
#79 = LOCAL_TIME ( 10, 19, 11.00000000000000000, #38 ) ;
#80 = AXIS2_PLACEMENT_3D ( 'NONE', #64, #217, #85 ) ;
#81 = PERSON_AND_ORGANIZATION ( #34, #232 ) ;
#82 = ORIENTED_EDGE ( 'NONE', *, *, #7, .T. ) ;
#83 = APPROVAL_DATE_TIME ( #76, #237 ) ;
#84 = CARTESIAN_POINT ( 'NONE',  ( 0.000000000000000000, 0.000000000000000000, 200.0000000000000000 ) ) ;
#85 = DIRECTION ( 'NONE',  ( 1.000000000000000000, 0.000000000000000000, 0.000000000000000000 ) ) ;
#86 = CLOSED_SHELL ( 'NONE', ( #244, #241, #130, #125, #2, #49, #50 ) ) ;
#87 = PLANE ( 'NONE',  #151 ) ;
#88 = MANIFOLD_SOLID_BREP ( 'Pøidat vysunutím3', #86 ) ;
#89 = DIRECTION ( 'NONE',  ( 1.000000000000000000, 0.000000000000000000, 0.000000000000000000 ) ) ;
#90 = EDGE_CURVE ( 'NONE', #250, #242, #175, .T. ) ;
#91 = CC_DESIGN_PERSON_AND_ORGANIZATION_ASSIGNMENT ( #234, #97, ( #51 ) ) ;
#92 = CARTESIAN_POINT ( 'NONE',  ( -9.000000000000000000, 0.000000000000000000, 200.0000000000000000 ) ) ;
#93 = CARTESIAN_POINT ( 'NONE',  ( 9.000000000000000000, 1.102182119232617714E-15, 7.000000000000000000 ) ) ;
#94 = EDGE_CURVE ( 'NONE', #242, #250, #205, .T. ) ;
#95 = PERSON_AND_ORGANIZATION ( #34, #232 ) ;
#96 = EDGE_CURVE ( 'NONE', #219, #228, #177, .T. ) ;
#97 = PERSON_AND_ORGANIZATION_ROLE ( 'design_owner' ) ;
#98 = APPROVAL_DATE_TIME ( #39, #10 ) ;
#99 = VERTEX_POINT ( 'NONE', #73 ) ;
#100 = CALENDAR_DATE ( 2023, 13, 2 ) ;
#101 = DIRECTION ( 'NONE',  ( 1.000000000000000000, 0.000000000000000000, -0.000000000000000000 ) ) ;
#102 = FACE_OUTER_BOUND ( 'NONE', #138, .T. ) ;
#103 = ADVANCED_BREP_SHAPE_REPRESENTATION ( 'ab32', ( #88, #123 ), #150 ) ;
#104 = AXIS2_PLACEMENT_3D ( 'NONE', #84, #22, #154 ) ;
#105 = LOCAL_TIME ( 10, 19, 11.00000000000000000, #16 ) ;
#106 = ORIENTED_EDGE ( 'NONE', *, *, #207, .F. ) ;
#107 = DIRECTION ( 'NONE',  ( 1.000000000000000000, 0.000000000000000000, 0.000000000000000000 ) ) ;
#108 = DIRECTION ( 'NONE',  ( 1.000000000000000000, 0.000000000000000000, 0.000000000000000000 ) ) ;
#109 = CIRCLE ( 'NONE', #223, 9.000000000000000000 ) ;
#110 = CC_DESIGN_DATE_AND_TIME_ASSIGNMENT ( #17, #135, ( #248 ) ) ;
#111 = CARTESIAN_POINT ( 'NONE',  ( -12.00000000000000178, 0.000000000000000000, 0.000000000000000000 ) ) ;
#112 = ORIENTED_EDGE ( 'NONE', *, *, #207, .T. ) ;
#113 = DIRECTION ( 'NONE',  ( -1.000000000000000000, 0.000000000000000000, 0.000000000000000000 ) ) ;
#114 = EDGE_LOOP ( 'NONE', ( #147, #181, #166, #46 ) ) ;
#115 = CALENDAR_DATE ( 2023, 13, 2 ) ;
#116 = PERSON_AND_ORGANIZATION ( #34, #232 ) ;
#117 = DIRECTION ( 'NONE',  ( 1.000000000000000000, 0.000000000000000000, -0.000000000000000000 ) ) ;
#118 = APPROVAL_STATUS ( 'not_yet_approved' ) ;
#119 = CARTESIAN_POINT ( 'NONE',  ( 0.000000000000000000, 0.000000000000000000, 200.0000000000000000 ) ) ;
#120 = ORIENTED_EDGE ( 'NONE', *, *, #90, .F. ) ;
#121 = EDGE_LOOP ( 'NONE', ( #160, #8 ) ) ;
#122 = APPROVAL_PERSON_ORGANIZATION ( #136, #202, #133 ) ;
#123 = AXIS2_PLACEMENT_3D ( 'NONE', #210, #61, #1 ) ;
#124 = ORIENTED_EDGE ( 'NONE', *, *, #164, .T. ) ;
#125 = ADVANCED_FACE ( 'NONE', ( #189, #192 ), #222, .T. ) ;
#126 =( NAMED_UNIT ( * ) SI_UNIT ( $, .STERADIAN. ) SOLID_ANGLE_UNIT ( ) );
#127 = LINE ( 'NONE', #146, #169 ) ;
#128 = CARTESIAN_POINT ( 'NONE',  ( 0.000000000000000000, 0.000000000000000000, 7.000000000000000000 ) ) ;
#129 = DIRECTION ( 'NONE',  ( -1.000000000000000000, 0.000000000000000000, 0.000000000000000000 ) ) ;
#130 = ADVANCED_FACE ( 'NONE', ( #203 ), #33, .T. ) ;
#131 = APPROVAL_PERSON_ORGANIZATION ( #194, #10, #197 ) ;
#132 = PERSON_AND_ORGANIZATION_ROLE ( 'creator' ) ;
#133 = APPROVAL_ROLE ( '' ) ;
#134 = FACE_OUTER_BOUND ( 'NONE', #200, .T. ) ;
#135 = DATE_TIME_ROLE ( 'creation_date' ) ;
#136 = PERSON_AND_ORGANIZATION ( #34, #232 ) ;
#137 = VERTEX_POINT ( 'NONE', #93 ) ;
#138 = EDGE_LOOP ( 'NONE', ( #26, #183 ) ) ;
#139 = CARTESIAN_POINT ( 'NONE',  ( -12.00000000000000178, 0.000000000000000000, 7.000000000000000000 ) ) ;
#140 = VECTOR ( 'NONE', #157, 1000.000000000000000 ) ;
#141 = CIRCLE ( 'NONE', #37, 12.00000000000000178 ) ;
#142 = APPROVAL_PERSON_ORGANIZATION ( #179, #237, #4 ) ;
#143 = DIRECTION ( 'NONE',  ( 0.000000000000000000, 0.000000000000000000, 1.000000000000000000 ) ) ;
#144 = PRODUCT_DEFINITION_SHAPE ( 'NONE', 'NONE',  #248 ) ;
#145 = CARTESIAN_POINT ( 'NONE',  ( 0.000000000000000000, 0.000000000000000000, 7.000000000000000000 ) ) ;
#146 = CARTESIAN_POINT ( 'NONE',  ( 9.000000000000000000, 1.102182119232617714E-15, 200.0000000000000000 ) ) ;
#147 = ORIENTED_EDGE ( 'NONE', *, *, #29, .F. ) ;
#148 = FACE_OUTER_BOUND ( 'NONE', #201, .T. ) ;
#149 = APPROVAL_STATUS ( 'not_yet_approved' ) ;
#150 =( GEOMETRIC_REPRESENTATION_CONTEXT ( 3 ) GLOBAL_UNCERTAINTY_ASSIGNED_CONTEXT ( ( #69 ) ) GLOBAL_UNIT_ASSIGNED_CONTEXT ( ( #12, #13, #126 ) ) REPRESENTATION_CONTEXT ( 'NONE', 'WORKASPACE' ) );
#151 = AXIS2_PLACEMENT_3D ( 'NONE', #119, #68, #101 ) ;
#152 = CARTESIAN_POINT ( 'NONE',  ( 0.000000000000000000, 0.000000000000000000, 0.000000000000000000 ) ) ;
#153 = APPROVAL_DATE_TIME ( #231, #202 ) ;
#154 = DIRECTION ( 'NONE',  ( -1.000000000000000000, 0.000000000000000000, 0.000000000000000000 ) ) ;
#155 = SECURITY_CLASSIFICATION_LEVEL ( 'unclassified' ) ;
#156 = APPLICATION_CONTEXT ( 'configuration controlled 3d designs of mechanical parts and assemblies' ) ;
#157 = DIRECTION ( 'NONE',  ( -0.000000000000000000, -0.000000000000000000, -1.000000000000000000 ) ) ;
#158 = AXIS2_PLACEMENT_3D ( 'NONE', #128, #52, #187 ) ;
#159 = AXIS2_PLACEMENT_3D ( 'NONE', #225, #11, #107 ) ;
#160 = ORIENTED_EDGE ( 'NONE', *, *, #212, .F. ) ;
#161 = DIRECTION ( 'NONE',  ( 1.000000000000000000, 0.000000000000000000, 0.000000000000000000 ) ) ;
#162 = CARTESIAN_POINT ( 'NONE',  ( 0.000000000000000000, 0.000000000000000000, 200.0000000000000000 ) ) ;
#163 = AXIS2_PLACEMENT_3D ( 'NONE', #162, #209, #208 ) ;
#164 = EDGE_CURVE ( 'NONE', #137, #99, #188, .T. ) ;
#165 = CC_DESIGN_PERSON_AND_ORGANIZATION_ASSIGNMENT ( #95, #173, ( #30 ) ) ;
#166 = ORIENTED_EDGE ( 'NONE', *, *, #77, .T. ) ;
#167 = CARTESIAN_POINT ( 'NONE',  ( 0.000000000000000000, 0.000000000000000000, 7.000000000000000000 ) ) ;
#168 = CIRCLE ( 'NONE', #80, 12.00000000000000178 ) ;
#169 = VECTOR ( 'NONE', #15, 1000.000000000000000 ) ;
#170 = CC_DESIGN_PERSON_AND_ORGANIZATION_ASSIGNMENT ( #116, #238, ( #182 ) ) ;
#171 = CALENDAR_DATE ( 2023, 13, 2 ) ;
#172 = APPROVAL_STATUS ( 'not_yet_approved' ) ;
#173 = PERSON_AND_ORGANIZATION_ROLE ( 'creator' ) ;
#174 = CC_DESIGN_SECURITY_CLASSIFICATION ( #182, ( #30 ) ) ;
#175 = CIRCLE ( 'NONE', #31, 9.000000000000000000 ) ;
#176 = EDGE_LOOP ( 'NONE', ( #82, #62 ) ) ;
#177 = CIRCLE ( 'NONE', #159, 12.00000000000000178 ) ;
#178 = DIRECTION ( 'NONE',  ( 0.000000000000000000, 0.000000000000000000, 1.000000000000000000 ) ) ;
#179 = PERSON_AND_ORGANIZATION ( #34, #232 ) ;
#180 = DIRECTION ( 'NONE',  ( -0.000000000000000000, -0.000000000000000000, -1.000000000000000000 ) ) ;
#181 = ORIENTED_EDGE ( 'NONE', *, *, #7, .F. ) ;
#182 = SECURITY_CLASSIFICATION ( '', '', #155 ) ;
#183 = ORIENTED_EDGE ( 'NONE', *, *, #94, .T. ) ;
#184 = DIRECTION ( 'NONE',  ( -0.000000000000000000, -0.000000000000000000, -1.000000000000000000 ) ) ;
#185 = AXIS2_PLACEMENT_3D ( 'NONE', #243, #184, #229 ) ;
#186 = DESIGN_CONTEXT ( 'detailed design', #156, 'design' ) ;
#187 = DIRECTION ( 'NONE',  ( 1.000000000000000000, 0.000000000000000000, -0.000000000000000000 ) ) ;
#188 = CIRCLE ( 'NONE', #221, 9.000000000000000000 ) ;
#189 = FACE_BOUND ( 'NONE', #121, .T. ) ;
#190 = CARTESIAN_POINT ( 'NONE',  ( 0.000000000000000000, 0.000000000000000000, 200.0000000000000000 ) ) ;
#191 = ORIENTED_EDGE ( 'NONE', *, *, #96, .F. ) ;
#192 = FACE_OUTER_BOUND ( 'NONE', #176, .T. ) ;
#193 = CC_DESIGN_PERSON_AND_ORGANIZATION_ASSIGNMENT ( #42, #132, ( #248 ) ) ;
#194 = PERSON_AND_ORGANIZATION ( #34, #232 ) ;
#195 = CALENDAR_DATE ( 2023, 13, 2 ) ;
#196 = PLANE ( 'NONE',  #245 ) ;
#197 = APPROVAL_ROLE ( '' ) ;
#198 = LINE ( 'NONE', #5, #140 ) ;
#199 = LINE ( 'NONE', #235, #65 ) ;
#200 = EDGE_LOOP ( 'NONE', ( #106, #120, #35, #220 ) ) ;
#201 = EDGE_LOOP ( 'NONE', ( #47, #230, #6, #27 ) ) ;
#202 = APPROVAL ( #118, 'NEURÈENÝ' ) ;
#203 = FACE_OUTER_BOUND ( 'NONE', #114, .T. ) ;
#204 = DIRECTION ( 'NONE',  ( -0.000000000000000000, -0.000000000000000000, -1.000000000000000000 ) ) ;
#205 = CIRCLE ( 'NONE', #163, 9.000000000000000000 ) ;
#206 = CARTESIAN_POINT ( 'NONE',  ( 0.000000000000000000, 0.000000000000000000, 7.000000000000000000 ) ) ;
#207 = EDGE_CURVE ( 'NONE', #242, #137, #127, .T. ) ;
#208 = DIRECTION ( 'NONE',  ( 1.000000000000000000, 0.000000000000000000, 0.000000000000000000 ) ) ;
#209 = DIRECTION ( 'NONE',  ( 0.000000000000000000, 0.000000000000000000, 1.000000000000000000 ) ) ;
#210 = CARTESIAN_POINT ( 'NONE',  ( 0.000000000000000000, 0.000000000000000000, 0.000000000000000000 ) ) ;
#211 = AXIS2_PLACEMENT_3D ( 'NONE', #152, #45, #161 ) ;
#212 = EDGE_CURVE ( 'NONE', #99, #137, #109, .T. ) ;
#213 = COORDINATED_UNIVERSAL_TIME_OFFSET ( 1, 0, .AHEAD. ) ;
#214 = VERTEX_POINT ( 'NONE', #32 ) ;
#215 = APPLICATION_CONTEXT ( 'configuration controlled 3d designs of mechanical parts and assemblies' ) ;
#216 = MECHANICAL_CONTEXT ( 'NONE', #215, 'mechanical' ) ;
#217 = DIRECTION ( 'NONE',  ( 0.000000000000000000, 0.000000000000000000, 1.000000000000000000 ) ) ;
#218 = CARTESIAN_POINT ( 'NONE',  ( 0.000000000000000000, 0.000000000000000000, 7.000000000000000000 ) ) ;
#219 = VERTEX_POINT ( 'NONE', #75 ) ;
#220 = ORIENTED_EDGE ( 'NONE', *, *, #212, .T. ) ;
#221 = AXIS2_PLACEMENT_3D ( 'NONE', #206, #48, #227 ) ;
#222 = PLANE ( 'NONE',  #158 ) ;
#223 = AXIS2_PLACEMENT_3D ( 'NONE', #167, #143, #249 ) ;
#224 = CC_DESIGN_DATE_AND_TIME_ASSIGNMENT ( #252, #18, ( #182 ) ) ;
#225 = CARTESIAN_POINT ( 'NONE',  ( 0.000000000000000000, 0.000000000000000000, 0.000000000000000000 ) ) ;
#226 = LOCAL_TIME ( 10, 19, 11.00000000000000000, #21 ) ;
#227 = DIRECTION ( 'NONE',  ( 1.000000000000000000, 0.000000000000000000, 0.000000000000000000 ) ) ;
#228 = VERTEX_POINT ( 'NONE', #111 ) ;
#229 = DIRECTION ( 'NONE',  ( -1.000000000000000000, 0.000000000000000000, 0.000000000000000000 ) ) ;
#230 = ORIENTED_EDGE ( 'NONE', *, *, #29, .T. ) ;
#231 = DATE_AND_TIME ( #40, #79 ) ;
#232 = ORGANIZATION ( 'NEURÈENÝ', 'NEURÈENÝ', '' ) ;
#233 = CIRCLE ( 'NONE', #211, 12.00000000000000178 ) ;
#234 = PERSON_AND_ORGANIZATION ( #34, #232 ) ;
#235 = CARTESIAN_POINT ( 'NONE',  ( 12.00000000000000178, 1.469576158976824144E-15, 7.000000000000000000 ) ) ;
#236 = EDGE_LOOP ( 'NONE', ( #14, #191 ) ) ;
#237 = APPROVAL ( #172, 'NEURÈENÝ' ) ;
#238 = PERSON_AND_ORGANIZATION_ROLE ( 'classification_officer' ) ;
#239 = CARTESIAN_POINT ( 'NONE',  ( 0.000000000000000000, 0.000000000000000000, 200.0000000000000000 ) ) ;
#240 = ORIENTED_EDGE ( 'NONE', *, *, #60, .F. ) ;
#241 = ADVANCED_FACE ( 'NONE', ( #148 ), #72, .T. ) ;
#242 = VERTEX_POINT ( 'NONE', #9 ) ;
#243 = CARTESIAN_POINT ( 'NONE',  ( 0.000000000000000000, 0.000000000000000000, 7.000000000000000000 ) ) ;
#244 = ADVANCED_FACE ( 'NONE', ( #247 ), #56, .T. ) ;
#245 = AXIS2_PLACEMENT_3D ( 'NONE', #20, #255, #117 ) ;
#246 = CC_DESIGN_APPROVAL ( #237, ( #248 ) ) ;
#247 = FACE_OUTER_BOUND ( 'NONE', #74, .T. ) ;
#248 = PRODUCT_DEFINITION ( 'NEZNÁMÝ', '', #30, #186 ) ;
#249 = DIRECTION ( 'NONE',  ( 1.000000000000000000, 0.000000000000000000, 0.000000000000000000 ) ) ;
#250 = VERTEX_POINT ( 'NONE', #92 ) ;
#251 = CC_DESIGN_PERSON_AND_ORGANIZATION_ASSIGNMENT ( #81, #36, ( #30 ) ) ;
#252 = DATE_AND_TIME ( #115, #226 ) ;
#253 = LOCAL_TIME ( 10, 19, 11.00000000000000000, #213 ) ;
#254 = VECTOR ( 'NONE', #180, 1000.000000000000000 ) ;
#255 = DIRECTION ( 'NONE',  ( 0.000000000000000000, 0.000000000000000000, 1.000000000000000000 ) ) ;
ENDSEC;
END-ISO-10303-21;
