ISO-10303-21;
HEADER;
FILE_DESCRIPTION (( 'STEP AP203' ),
    '1' );
FILE_NAME ('2ca3.STEP',
    '2023-02-13T11:13:08',
    ( '' ),
    ( '' ),
    'SwSTEP 2.0',
    'SolidWorks 2019',
    '' );
FILE_SCHEMA (( 'CONFIG_CONTROL_DESIGN' ));
ENDSEC;

DATA;
#1 = AXIS2_PLACEMENT_3D ( 'NONE', #180, #10, #84 ) ;
#2 = EDGE_CURVE ( 'NONE', #156, #211, #188, .T. ) ;
#3 = ORIENTED_EDGE ( 'NONE', *, *, #159, .F. ) ;
#4 = ORIENTED_EDGE ( 'NONE', *, *, #68, .F. ) ;
#5 = COORDINATED_UNIVERSAL_TIME_OFFSET ( 1, 0, .AHEAD. ) ;
#6 = CARTESIAN_POINT ( 'NONE',  ( 5.100000000000001421, 6.245698675651502811E-16, 500.0000000000000000 ) ) ;
#7 = PRODUCT ( '2ca3', '2ca3', '', ( #105 ) ) ;
#8 = FACE_OUTER_BOUND ( 'NONE', #146, .T. ) ;
#9 = EDGE_CURVE ( 'NONE', #229, #131, #35, .T. ) ;
#10 = DIRECTION ( 'NONE',  ( 0.000000000000000000, 0.000000000000000000, 1.000000000000000000 ) ) ;
#11 = PERSON_AND_ORGANIZATION ( #76, #69 ) ;
#12 = EDGE_CURVE ( 'NONE', #229, #26, #155, .T. ) ;
#13 = LINE ( 'NONE', #243, #83 ) ;
#14 = PERSON_AND_ORGANIZATION_ROLE ( 'creator' ) ;
#15 = EDGE_LOOP ( 'NONE', ( #210, #72, #44, #186 ) ) ;
#16 = ADVANCED_FACE ( 'NONE', ( #113 ), #118, .T. ) ;
#17 = PRODUCT_RELATED_PRODUCT_CATEGORY ( 'detail', '', ( #7 ) ) ;
#18 = EDGE_LOOP ( 'NONE', ( #217, #4 ) ) ;
#19 = CALENDAR_DATE ( 2023, 13, 2 ) ;
#20 = CYLINDRICAL_SURFACE ( 'NONE', #145, 8.000000000000000000 ) ;
#21 = PERSON_AND_ORGANIZATION ( #76, #69 ) ;
#22 = CARTESIAN_POINT ( 'NONE',  ( 0.000000000000000000, 0.000000000000000000, 5.000000000000000000 ) ) ;
#23 = CC_DESIGN_PERSON_AND_ORGANIZATION_ASSIGNMENT ( #184, #14, ( #110 ) ) ;
#24 = PLANE ( 'NONE',  #248 ) ;
#25 = CIRCLE ( 'NONE', #157, 5.100000000000001421 ) ;
#26 = VERTEX_POINT ( 'NONE', #92 ) ;
#27 = DIRECTION ( 'NONE',  ( -0.000000000000000000, -0.000000000000000000, -1.000000000000000000 ) ) ;
#28 = ADVANCED_FACE ( 'NONE', ( #170 ), #253, .F. ) ;
#29 = FACE_OUTER_BOUND ( 'NONE', #212, .T. ) ;
#30 = EDGE_CURVE ( 'NONE', #26, #229, #251, .T. ) ;
#31 = DIRECTION ( 'NONE',  ( 1.000000000000000000, 0.000000000000000000, -0.000000000000000000 ) ) ;
#32 = APPROVAL_PERSON_ORGANIZATION ( #36, #108, #154 ) ;
#33 = DATE_AND_TIME ( #207, #104 ) ;
#34 = CIRCLE ( 'NONE', #214, 8.000000000000000000 ) ;
#35 = LINE ( 'NONE', #38, #43 ) ;
#36 = PERSON_AND_ORGANIZATION ( #76, #69 ) ;
#37 = AXIS2_PLACEMENT_3D ( 'NONE', #50, #141, #49 ) ;
#38 = CARTESIAN_POINT ( 'NONE',  ( 8.000000000000000000, 9.797174393178825657E-16, 5.000000000000000000 ) ) ;
#39 = PERSON_AND_ORGANIZATION ( #76, #69 ) ;
#40 = APPROVAL ( #174, 'NEURÈENÝ' ) ;
#41 = DIRECTION ( 'NONE',  ( 0.000000000000000000, 0.000000000000000000, 1.000000000000000000 ) ) ;
#42 = COORDINATED_UNIVERSAL_TIME_OFFSET ( 1, 0, .AHEAD. ) ;
#43 = VECTOR ( 'NONE', #139, 1000.000000000000000 ) ;
#44 = ORIENTED_EDGE ( 'NONE', *, *, #177, .T. ) ;
#45 = DIRECTION ( 'NONE',  ( 1.000000000000000000, 0.000000000000000000, 0.000000000000000000 ) ) ;
#46 = VECTOR ( 'NONE', #203, 1000.000000000000000 ) ;
#47 = LINE ( 'NONE', #224, #46 ) ;
#48 =( NAMED_UNIT ( * ) PLANE_ANGLE_UNIT ( ) SI_UNIT ( $, .RADIAN. ) );
#49 = DIRECTION ( 'NONE',  ( -1.000000000000000000, 0.000000000000000000, 0.000000000000000000 ) ) ;
#50 = CARTESIAN_POINT ( 'NONE',  ( 0.000000000000000000, 0.000000000000000000, 500.0000000000000000 ) ) ;
#51 = CARTESIAN_POINT ( 'NONE',  ( 0.000000000000000000, 0.000000000000000000, 5.000000000000000000 ) ) ;
#52 = APPROVAL_ROLE ( '' ) ;
#53 =( GEOMETRIC_REPRESENTATION_CONTEXT ( 3 ) GLOBAL_UNCERTAINTY_ASSIGNED_CONTEXT ( ( #111 ) ) GLOBAL_UNIT_ASSIGNED_CONTEXT ( ( #82, #48, #200 ) ) REPRESENTATION_CONTEXT ( 'NONE', 'WORKASPACE' ) );
#54 = ORIENTED_EDGE ( 'NONE', *, *, #12, .F. ) ;
#55 = ADVANCED_FACE ( 'NONE', ( #192 ), #20, .T. ) ;
#56 = DIRECTION ( 'NONE',  ( 0.000000000000000000, 0.000000000000000000, 1.000000000000000000 ) ) ;
#57 = APPROVAL_STATUS ( 'not_yet_approved' ) ;
#58 = LOCAL_TIME ( 12, 13, 8.000000000000000000, #42 ) ;
#59 = ORIENTED_EDGE ( 'NONE', *, *, #159, .T. ) ;
#60 = ADVANCED_FACE ( 'NONE', ( #78 ), #171, .T. ) ;
#61 = FACE_OUTER_BOUND ( 'NONE', #215, .T. ) ;
#62 = CARTESIAN_POINT ( 'NONE',  ( 0.000000000000000000, 0.000000000000000000, 5.000000000000000000 ) ) ;
#63 = LOCAL_TIME ( 12, 13, 8.000000000000000000, #5 ) ;
#64 = CC_DESIGN_DATE_AND_TIME_ASSIGNMENT ( #193, #190, ( #179 ) ) ;
#65 = CARTESIAN_POINT ( 'NONE',  ( 0.000000000000000000, 0.000000000000000000, 500.0000000000000000 ) ) ;
#66 = DIRECTION ( 'NONE',  ( 0.000000000000000000, 0.000000000000000000, 1.000000000000000000 ) ) ;
#67 = APPLICATION_PROTOCOL_DEFINITION ( 'international standard', 'config_control_design', 1994, #187 ) ;
#68 = EDGE_CURVE ( 'NONE', #131, #198, #34, .T. ) ;
#69 = ORGANIZATION ( 'NEURÈENÝ', 'NEURÈENÝ', '' ) ;
#70 = PRODUCT_DEFINITION_SHAPE ( 'NONE', 'NONE',  #110 ) ;
#71 = ORIENTED_EDGE ( 'NONE', *, *, #247, .F. ) ;
#72 = ORIENTED_EDGE ( 'NONE', *, *, #30, .F. ) ;
#73 = AXIS2_PLACEMENT_3D ( 'NONE', #233, #41, #115 ) ;
#74 = PRODUCT_DEFINITION_FORMATION_WITH_SPECIFIED_SOURCE ( 'LIBOVOLNÝ', '', #7, .NOT_KNOWN. ) ;
#75 = DIRECTION ( 'NONE',  ( 0.000000000000000000, 0.000000000000000000, 1.000000000000000000 ) ) ;
#76 = PERSON ( 'NEURÈENÝ', 'NEURÈENÝ', 'NEURÈENÝ', ('NEURÈENÝ'), ('NEURÈENÝ'), ('NEURÈENÝ') ) ;
#77 = ORIENTED_EDGE ( 'NONE', *, *, #177, .F. ) ;
#78 = FACE_OUTER_BOUND ( 'NONE', #148, .T. ) ;
#79 = CARTESIAN_POINT ( 'NONE',  ( 0.000000000000000000, 0.000000000000000000, 5.000000000000000000 ) ) ;
#80 = AXIS2_PLACEMENT_3D ( 'NONE', #79, #129, #121 ) ;
#81 = EDGE_LOOP ( 'NONE', ( #54, #133, #89, #77 ) ) ;
#82 =( LENGTH_UNIT ( ) NAMED_UNIT ( * ) SI_UNIT ( .MILLI., .METRE. ) );
#83 = VECTOR ( 'NONE', #142, 1000.000000000000000 ) ;
#84 = DIRECTION ( 'NONE',  ( 1.000000000000000000, 0.000000000000000000, 0.000000000000000000 ) ) ;
#85 = DIRECTION ( 'NONE',  ( 0.000000000000000000, 0.000000000000000000, 1.000000000000000000 ) ) ;
#86 = AXIS2_PLACEMENT_3D ( 'NONE', #65, #66, #87 ) ;
#87 = DIRECTION ( 'NONE',  ( 1.000000000000000000, 0.000000000000000000, -0.000000000000000000 ) ) ;
#88 = PERSON_AND_ORGANIZATION ( #76, #69 ) ;
#89 = ORIENTED_EDGE ( 'NONE', *, *, #68, .T. ) ;
#90 = DESIGN_CONTEXT ( 'detailed design', #187, 'design' ) ;
#91 = APPROVAL_PERSON_ORGANIZATION ( #21, #40, #116 ) ;
#92 = CARTESIAN_POINT ( 'NONE',  ( -8.000000000000000000, 0.000000000000000000, 5.000000000000000000 ) ) ;
#93 = DATE_AND_TIME ( #19, #216 ) ;
#94 = DIRECTION ( 'NONE',  ( 0.000000000000000000, 0.000000000000000000, 1.000000000000000000 ) ) ;
#95 = ADVANCED_FACE ( 'NONE', ( #237, #61 ), #24, .T. ) ;
#96 = DIRECTION ( 'NONE',  ( 1.000000000000000000, 0.000000000000000000, 0.000000000000000000 ) ) ;
#97 = DIRECTION ( 'NONE',  ( -1.000000000000000000, 0.000000000000000000, 0.000000000000000000 ) ) ;
#98 = PERSON_AND_ORGANIZATION_ROLE ( 'creator' ) ;
#99 = EDGE_CURVE ( 'NONE', #198, #131, #167, .T. ) ;
#100 = ORIENTED_EDGE ( 'NONE', *, *, #247, .T. ) ;
#101 = PERSON_AND_ORGANIZATION_ROLE ( 'classification_officer' ) ;
#102 = CARTESIAN_POINT ( 'NONE',  ( 0.000000000000000000, 0.000000000000000000, 500.0000000000000000 ) ) ;
#103 = CYLINDRICAL_SURFACE ( 'NONE', #37, 5.100000000000001421 ) ;
#104 = LOCAL_TIME ( 12, 13, 8.000000000000000000, #126 ) ;
#105 = MECHANICAL_CONTEXT ( 'NONE', #223, 'mechanical' ) ;
#106 = CARTESIAN_POINT ( 'NONE',  ( -8.000000000000000000, 0.000000000000000000, 0.000000000000000000 ) ) ;
#107 = VECTOR ( 'NONE', #27, 1000.000000000000000 ) ;
#108 = APPROVAL ( #57, 'NEURÈENÝ' ) ;
#109 = APPROVAL_DATE_TIME ( #33, #222 ) ;
#110 = PRODUCT_DEFINITION ( 'NEZNÁMÝ', '', #74, #90 ) ;
#111 = UNCERTAINTY_MEASURE_WITH_UNIT (LENGTH_MEASURE( 1.000000000000000082E-05 ), #82, 'distance_accuracy_value', 'NONE');
#112 = CARTESIAN_POINT ( 'NONE',  ( 0.000000000000000000, 0.000000000000000000, 5.000000000000000000 ) ) ;
#113 = FACE_OUTER_BOUND ( 'NONE', #81, .T. ) ;
#114 = CALENDAR_DATE ( 2023, 13, 2 ) ;
#115 = DIRECTION ( 'NONE',  ( 1.000000000000000000, 0.000000000000000000, -0.000000000000000000 ) ) ;
#116 = APPROVAL_ROLE ( '' ) ;
#117 = CLOSED_SHELL ( 'NONE', ( #60, #16, #55, #95, #28, #249, #135 ) ) ;
#118 = CYLINDRICAL_SURFACE ( 'NONE', #80, 8.000000000000000000 ) ;
#119 = APPROVAL_DATE_TIME ( #219, #108 ) ;
#120 = EDGE_CURVE ( 'NONE', #220, #231, #252, .T. ) ;
#121 = DIRECTION ( 'NONE',  ( -1.000000000000000000, 0.000000000000000000, 0.000000000000000000 ) ) ;
#122 = DIRECTION ( 'NONE',  ( 0.000000000000000000, 0.000000000000000000, 1.000000000000000000 ) ) ;
#123 = CC_DESIGN_PERSON_AND_ORGANIZATION_ASSIGNMENT ( #11, #144, ( #7 ) ) ;
#124 = LINE ( 'NONE', #226, #107 ) ;
#125 = CARTESIAN_POINT ( 'NONE',  ( 5.100000000000001421, 6.245698675651502811E-16, 5.000000000000000000 ) ) ;
#126 = COORDINATED_UNIVERSAL_TIME_OFFSET ( 1, 0, .AHEAD. ) ;
#127 = ORIENTED_EDGE ( 'NONE', *, *, #238, .T. ) ;
#128 = ORIENTED_EDGE ( 'NONE', *, *, #163, .F. ) ;
#129 = DIRECTION ( 'NONE',  ( -0.000000000000000000, -0.000000000000000000, -1.000000000000000000 ) ) ;
#130 = ADVANCED_BREP_SHAPE_REPRESENTATION ( '2ca3', ( #161, #1 ), #53 ) ;
#131 = VERTEX_POINT ( 'NONE', #162 ) ;
#132 = SECURITY_CLASSIFICATION_LEVEL ( 'unclassified' ) ;
#133 = ORIENTED_EDGE ( 'NONE', *, *, #9, .T. ) ;
#134 = CALENDAR_DATE ( 2023, 13, 2 ) ;
#135 = ADVANCED_FACE ( 'NONE', ( #8 ), #178, .T. ) ;
#136 = DIRECTION ( 'NONE',  ( -0.000000000000000000, -0.000000000000000000, -1.000000000000000000 ) ) ;
#137 = DATE_AND_TIME ( #134, #191 ) ;
#138 = AXIS2_PLACEMENT_3D ( 'NONE', #112, #94, #45 ) ;
#139 = DIRECTION ( 'NONE',  ( -0.000000000000000000, -0.000000000000000000, -1.000000000000000000 ) ) ;
#140 = CALENDAR_DATE ( 2023, 13, 2 ) ;
#141 = DIRECTION ( 'NONE',  ( -0.000000000000000000, -0.000000000000000000, -1.000000000000000000 ) ) ;
#142 = DIRECTION ( 'NONE',  ( -0.000000000000000000, -0.000000000000000000, -1.000000000000000000 ) ) ;
#143 = DIRECTION ( 'NONE',  ( 1.000000000000000000, 0.000000000000000000, 0.000000000000000000 ) ) ;
#144 = PERSON_AND_ORGANIZATION_ROLE ( 'design_owner' ) ;
#145 = AXIS2_PLACEMENT_3D ( 'NONE', #62, #136, #150 ) ;
#146 = EDGE_LOOP ( 'NONE', ( #218, #209 ) ) ;
#147 = ORIENTED_EDGE ( 'NONE', *, *, #120, .F. ) ;
#148 = EDGE_LOOP ( 'NONE', ( #147, #59, #189, #71 ) ) ;
#149 = PERSON_AND_ORGANIZATION ( #76, #69 ) ;
#150 = DIRECTION ( 'NONE',  ( -1.000000000000000000, 0.000000000000000000, 0.000000000000000000 ) ) ;
#151 = COORDINATED_UNIVERSAL_TIME_OFFSET ( 1, 0, .AHEAD. ) ;
#152 = DIRECTION ( 'NONE',  ( 0.000000000000000000, 0.000000000000000000, 1.000000000000000000 ) ) ;
#153 = CARTESIAN_POINT ( 'NONE',  ( 0.000000000000000000, 0.000000000000000000, 0.000000000000000000 ) ) ;
#154 = APPROVAL_ROLE ( '' ) ;
#155 = CIRCLE ( 'NONE', #138, 8.000000000000000000 ) ;
#156 = VERTEX_POINT ( 'NONE', #125 ) ;
#157 = AXIS2_PLACEMENT_3D ( 'NONE', #51, #205, #183 ) ;
#158 = APPLICATION_PROTOCOL_DEFINITION ( 'international standard', 'config_control_design', 1994, #223 ) ;
#159 = EDGE_CURVE ( 'NONE', #220, #156, #124, .T. ) ;
#160 = DIRECTION ( 'NONE',  ( 1.000000000000000000, 0.000000000000000000, 0.000000000000000000 ) ) ;
#161 = MANIFOLD_SOLID_BREP ( 'Pøidat vysunutím3', #117 ) ;
#162 = CARTESIAN_POINT ( 'NONE',  ( 8.000000000000000000, 9.797174393178825657E-16, 0.000000000000000000 ) ) ;
#163 = EDGE_CURVE ( 'NONE', #231, #220, #169, .T. ) ;
#164 = EDGE_LOOP ( 'NONE', ( #194, #241 ) ) ;
#165 = ORIENTED_EDGE ( 'NONE', *, *, #30, .T. ) ;
#166 = AXIS2_PLACEMENT_3D ( 'NONE', #172, #56, #96 ) ;
#167 = CIRCLE ( 'NONE', #201, 8.000000000000000000 ) ;
#168 = CC_DESIGN_DATE_AND_TIME_ASSIGNMENT ( #137, #235, ( #110 ) ) ;
#169 = CIRCLE ( 'NONE', #230, 5.100000000000001421 ) ;
#170 = FACE_OUTER_BOUND ( 'NONE', #18, .T. ) ;
#171 = CYLINDRICAL_SURFACE ( 'NONE', #176, 5.100000000000001421 ) ;
#172 = CARTESIAN_POINT ( 'NONE',  ( 0.000000000000000000, 0.000000000000000000, 5.000000000000000000 ) ) ;
#173 = CARTESIAN_POINT ( 'NONE',  ( 0.000000000000000000, 0.000000000000000000, 5.000000000000000000 ) ) ;
#174 = APPROVAL_STATUS ( 'not_yet_approved' ) ;
#175 = DIRECTION ( 'NONE',  ( 1.000000000000000000, 0.000000000000000000, 0.000000000000000000 ) ) ;
#176 = AXIS2_PLACEMENT_3D ( 'NONE', #254, #234, #97 ) ;
#177 = EDGE_CURVE ( 'NONE', #26, #198, #47, .T. ) ;
#178 = PLANE ( 'NONE',  #86 ) ;
#179 = SECURITY_CLASSIFICATION ( '', '', #132 ) ;
#180 = CARTESIAN_POINT ( 'NONE',  ( 0.000000000000000000, 0.000000000000000000, 0.000000000000000000 ) ) ;
#181 = CARTESIAN_POINT ( 'NONE',  ( -5.100000000000001421, 0.000000000000000000, 500.0000000000000000 ) ) ;
#182 = APPROVAL_PERSON_ORGANIZATION ( #88, #222, #52 ) ;
#183 = DIRECTION ( 'NONE',  ( 1.000000000000000000, 0.000000000000000000, 0.000000000000000000 ) ) ;
#184 = PERSON_AND_ORGANIZATION ( #76, #69 ) ;
#185 = CC_DESIGN_PERSON_AND_ORGANIZATION_ASSIGNMENT ( #196, #101, ( #179 ) ) ;
#186 = ORIENTED_EDGE ( 'NONE', *, *, #99, .T. ) ;
#187 = APPLICATION_CONTEXT ( 'configuration controlled 3d designs of mechanical parts and assemblies' ) ;
#188 = CIRCLE ( 'NONE', #255, 5.100000000000001421 ) ;
#189 = ORIENTED_EDGE ( 'NONE', *, *, #2, .T. ) ;
#190 = DATE_TIME_ROLE ( 'classification_date' ) ;
#191 = LOCAL_TIME ( 12, 13, 8.000000000000000000, #151 ) ;
#192 = FACE_OUTER_BOUND ( 'NONE', #15, .T. ) ;
#193 = DATE_AND_TIME ( #114, #58 ) ;
#194 = ORIENTED_EDGE ( 'NONE', *, *, #238, .F. ) ;
#195 = DIRECTION ( 'NONE',  ( 1.000000000000000000, 0.000000000000000000, 0.000000000000000000 ) ) ;
#196 = PERSON_AND_ORGANIZATION ( #76, #69 ) ;
#197 = CC_DESIGN_APPROVAL ( #222, ( #110 ) ) ;
#198 = VERTEX_POINT ( 'NONE', #106 ) ;
#199 = CARTESIAN_POINT ( 'NONE',  ( -5.100000000000001421, 0.000000000000000000, 5.000000000000000000 ) ) ;
#200 =( NAMED_UNIT ( * ) SI_UNIT ( $, .STERADIAN. ) SOLID_ANGLE_UNIT ( ) );
#201 = AXIS2_PLACEMENT_3D ( 'NONE', #204, #85, #160 ) ;
#202 = CC_DESIGN_APPROVAL ( #40, ( #179 ) ) ;
#203 = DIRECTION ( 'NONE',  ( -0.000000000000000000, -0.000000000000000000, -1.000000000000000000 ) ) ;
#204 = CARTESIAN_POINT ( 'NONE',  ( 0.000000000000000000, 0.000000000000000000, 0.000000000000000000 ) ) ;
#205 = DIRECTION ( 'NONE',  ( 0.000000000000000000, 0.000000000000000000, 1.000000000000000000 ) ) ;
#206 = CC_DESIGN_APPROVAL ( #108, ( #74 ) ) ;
#207 = CALENDAR_DATE ( 2023, 13, 2 ) ;
#208 = CC_DESIGN_PERSON_AND_ORGANIZATION_ASSIGNMENT ( #149, #98, ( #74 ) ) ;
#209 = ORIENTED_EDGE ( 'NONE', *, *, #120, .T. ) ;
#210 = ORIENTED_EDGE ( 'NONE', *, *, #9, .F. ) ;
#211 = VERTEX_POINT ( 'NONE', #199 ) ;
#212 = EDGE_LOOP ( 'NONE', ( #3, #128, #100, #127 ) ) ;
#213 = COORDINATED_UNIVERSAL_TIME_OFFSET ( 1, 0, .AHEAD. ) ;
#214 = AXIS2_PLACEMENT_3D ( 'NONE', #153, #152, #195 ) ;
#215 = EDGE_LOOP ( 'NONE', ( #165, #250 ) ) ;
#216 = LOCAL_TIME ( 12, 13, 8.000000000000000000, #213 ) ;
#217 = ORIENTED_EDGE ( 'NONE', *, *, #99, .F. ) ;
#218 = ORIENTED_EDGE ( 'NONE', *, *, #163, .T. ) ;
#219 = DATE_AND_TIME ( #140, #63 ) ;
#220 = VERTEX_POINT ( 'NONE', #6 ) ;
#221 = SHAPE_DEFINITION_REPRESENTATION ( #70, #130 ) ;
#222 = APPROVAL ( #228, 'NEURÈENÝ' ) ;
#223 = APPLICATION_CONTEXT ( 'configuration controlled 3d designs of mechanical parts and assemblies' ) ;
#224 = CARTESIAN_POINT ( 'NONE',  ( -8.000000000000000000, 0.000000000000000000, 5.000000000000000000 ) ) ;
#225 = AXIS2_PLACEMENT_3D ( 'NONE', #245, #227, #246 ) ;
#226 = CARTESIAN_POINT ( 'NONE',  ( 5.100000000000001421, 6.245698675651502811E-16, 500.0000000000000000 ) ) ;
#227 = DIRECTION ( 'NONE',  ( 0.000000000000000000, 0.000000000000000000, 1.000000000000000000 ) ) ;
#228 = APPROVAL_STATUS ( 'not_yet_approved' ) ;
#229 = VERTEX_POINT ( 'NONE', #242 ) ;
#230 = AXIS2_PLACEMENT_3D ( 'NONE', #102, #122, #143 ) ;
#231 = VERTEX_POINT ( 'NONE', #181 ) ;
#232 = PERSON_AND_ORGANIZATION_ROLE ( 'design_supplier' ) ;
#233 = CARTESIAN_POINT ( 'NONE',  ( 0.000000000000000000, 0.000000000000000000, 0.000000000000000000 ) ) ;
#234 = DIRECTION ( 'NONE',  ( -0.000000000000000000, -0.000000000000000000, -1.000000000000000000 ) ) ;
#235 = DATE_TIME_ROLE ( 'creation_date' ) ;
#236 = CC_DESIGN_SECURITY_CLASSIFICATION ( #179, ( #74 ) ) ;
#237 = FACE_BOUND ( 'NONE', #164, .T. ) ;
#238 = EDGE_CURVE ( 'NONE', #211, #156, #25, .T. ) ;
#239 = DIRECTION ( 'NONE',  ( 0.000000000000000000, 0.000000000000000000, 1.000000000000000000 ) ) ;
#240 = APPROVAL_DATE_TIME ( #93, #40 ) ;
#241 = ORIENTED_EDGE ( 'NONE', *, *, #2, .F. ) ;
#242 = CARTESIAN_POINT ( 'NONE',  ( 8.000000000000000000, 9.797174393178825657E-16, 5.000000000000000000 ) ) ;
#243 = CARTESIAN_POINT ( 'NONE',  ( -5.100000000000001421, 0.000000000000000000, 500.0000000000000000 ) ) ;
#244 = CC_DESIGN_PERSON_AND_ORGANIZATION_ASSIGNMENT ( #39, #232, ( #74 ) ) ;
#245 = CARTESIAN_POINT ( 'NONE',  ( 0.000000000000000000, 0.000000000000000000, 500.0000000000000000 ) ) ;
#246 = DIRECTION ( 'NONE',  ( 1.000000000000000000, 0.000000000000000000, 0.000000000000000000 ) ) ;
#247 = EDGE_CURVE ( 'NONE', #231, #211, #13, .T. ) ;
#248 = AXIS2_PLACEMENT_3D ( 'NONE', #173, #239, #31 ) ;
#249 = ADVANCED_FACE ( 'NONE', ( #29 ), #103, .T. ) ;
#250 = ORIENTED_EDGE ( 'NONE', *, *, #12, .T. ) ;
#251 = CIRCLE ( 'NONE', #166, 8.000000000000000000 ) ;
#252 = CIRCLE ( 'NONE', #225, 5.100000000000001421 ) ;
#253 = PLANE ( 'NONE',  #73 ) ;
#254 = CARTESIAN_POINT ( 'NONE',  ( 0.000000000000000000, 0.000000000000000000, 500.0000000000000000 ) ) ;
#255 = AXIS2_PLACEMENT_3D ( 'NONE', #22, #75, #175 ) ;
ENDSEC;
END-ISO-10303-21;
