ISO-10303-21;
HEADER;
FILE_DESCRIPTION (( 'STEP AP203' ),
    '1' );
FILE_NAME ('11cc.STEP',
    '2023-02-13T14:37:05',
    ( '' ),
    ( '' ),
    'SwSTEP 2.0',
    'SolidWorks 2019',
    '' );
FILE_SCHEMA (( 'CONFIG_CONTROL_DESIGN' ));
ENDSEC;

DATA;
#1 = AXIS2_PLACEMENT_3D ( 'NONE', #251, #153, #197 ) ;
#2 = DATE_AND_TIME ( #181, #205 ) ;
#3 = CARTESIAN_POINT ( 'NONE',  ( 0.000000000000000000, 0.000000000000000000, 0.000000000000000000 ) ) ;
#4 = DATE_AND_TIME ( #40, #174 ) ;
#5 = APPROVAL ( #244, 'NEURÈENÝ' ) ;
#6 = CIRCLE ( 'NONE', #238, 2.500000000000000000 ) ;
#7 = PERSON_AND_ORGANIZATION_ROLE ( 'classification_officer' ) ;
#8 = ORIENTED_EDGE ( 'NONE', *, *, #105, .T. ) ;
#9 = ORGANIZATION ( 'NEURÈENÝ', 'NEURÈENÝ', '' ) ;
#10 = ORIENTED_EDGE ( 'NONE', *, *, #90, .T. ) ;
#11 = ORIENTED_EDGE ( 'NONE', *, *, #242, .T. ) ;
#12 = FACE_OUTER_BOUND ( 'NONE', #148, .T. ) ;
#13 = AXIS2_PLACEMENT_3D ( 'NONE', #231, #15, #133 ) ;
#14 = DIRECTION ( 'NONE',  ( 1.000000000000000000, 0.000000000000000000, -0.000000000000000000 ) ) ;
#15 = DIRECTION ( 'NONE',  ( 0.000000000000000000, 0.000000000000000000, 1.000000000000000000 ) ) ;
#16 = CYLINDRICAL_SURFACE ( 'NONE', #99, 2.500000000000000000 ) ;
#17 = PRODUCT ( '11cc', '11cc', '', ( #97 ) ) ;
#18 = CARTESIAN_POINT ( 'NONE',  ( 0.000000000000000000, 0.000000000000000000, 3.000000000000000000 ) ) ;
#19 = PERSON_AND_ORGANIZATION ( #94, #9 ) ;
#20 =( NAMED_UNIT ( * ) SI_UNIT ( $, .STERADIAN. ) SOLID_ANGLE_UNIT ( ) );
#21 = APPROVAL_DATE_TIME ( #115, #33 ) ;
#22 = AXIS2_PLACEMENT_3D ( 'NONE', #18, #113, #52 ) ;
#23 = CC_DESIGN_PERSON_AND_ORGANIZATION_ASSIGNMENT ( #182, #7, ( #253 ) ) ;
#24 = APPLICATION_PROTOCOL_DEFINITION ( 'international standard', 'config_control_design', 1994, #195 ) ;
#25 = PERSON_AND_ORGANIZATION ( #94, #9 ) ;
#26 = CIRCLE ( 'NONE', #116, 2.500000000000000000 ) ;
#27 = PRODUCT_DEFINITION ( 'NEZNÁMÝ', '', #187, #82 ) ;
#28 = ORIENTED_EDGE ( 'NONE', *, *, #242, .F. ) ;
#29 = ORIENTED_EDGE ( 'NONE', *, *, #175, .T. ) ;
#30 = ORIENTED_EDGE ( 'NONE', *, *, #138, .T. ) ;
#31 = CARTESIAN_POINT ( 'NONE',  ( 2.500000000000000000, 3.061616997868383141E-16, 3.000000000000000000 ) ) ;
#32 = CARTESIAN_POINT ( 'NONE',  ( -2.500000000000000000, 0.000000000000000000, 3.000000000000000000 ) ) ;
#33 = APPROVAL ( #58, 'NEURÈENÝ' ) ;
#34 = AXIS2_PLACEMENT_3D ( 'NONE', #51, #178, #49 ) ;
#35 = CARTESIAN_POINT ( 'NONE',  ( 0.000000000000000000, 0.000000000000000000, 250.0000000000000000 ) ) ;
#36 = CARTESIAN_POINT ( 'NONE',  ( -5.000000000000000000, 0.000000000000000000, 3.000000000000000000 ) ) ;
#37 = PLANE ( 'NONE',  #192 ) ;
#38 = DIRECTION ( 'NONE',  ( 1.000000000000000000, 0.000000000000000000, -0.000000000000000000 ) ) ;
#39 = COORDINATED_UNIVERSAL_TIME_OFFSET ( 1, 0, .AHEAD. ) ;
#40 = CALENDAR_DATE ( 2023, 13, 2 ) ;
#41 = ADVANCED_FACE ( 'NONE', ( #210, #48 ), #167, .T. ) ;
#42 = CC_DESIGN_PERSON_AND_ORGANIZATION_ASSIGNMENT ( #25, #221, ( #187 ) ) ;
#43 = ORIENTED_EDGE ( 'NONE', *, *, #85, .T. ) ;
#44 = APPROVAL_PERSON_ORGANIZATION ( #240, #229, #223 ) ;
#45 = EDGE_LOOP ( 'NONE', ( #230, #183 ) ) ;
#46 = CC_DESIGN_PERSON_AND_ORGANIZATION_ASSIGNMENT ( #98, #203, ( #17 ) ) ;
#47 = ORIENTED_EDGE ( 'NONE', *, *, #207, .T. ) ;
#48 = FACE_OUTER_BOUND ( 'NONE', #170, .T. ) ;
#49 = DIRECTION ( 'NONE',  ( 1.000000000000000000, 0.000000000000000000, 0.000000000000000000 ) ) ;
#50 = CARTESIAN_POINT ( 'NONE',  ( 2.500000000000000000, 3.061616997868383141E-16, 250.0000000000000000 ) ) ;
#51 = CARTESIAN_POINT ( 'NONE',  ( 0.000000000000000000, 0.000000000000000000, 0.000000000000000000 ) ) ;
#52 = DIRECTION ( 'NONE',  ( 1.000000000000000000, 0.000000000000000000, 0.000000000000000000 ) ) ;
#53 = DIRECTION ( 'NONE',  ( 1.000000000000000000, 0.000000000000000000, 0.000000000000000000 ) ) ;
#54 = CC_DESIGN_APPROVAL ( #5, ( #27 ) ) ;
#55 = PERSON_AND_ORGANIZATION ( #94, #9 ) ;
#56 = COORDINATED_UNIVERSAL_TIME_OFFSET ( 1, 0, .AHEAD. ) ;
#57 = ADVANCED_FACE ( 'NONE', ( #83 ), #147, .T. ) ;
#58 = APPROVAL_STATUS ( 'not_yet_approved' ) ;
#59 = SECURITY_CLASSIFICATION_LEVEL ( 'unclassified' ) ;
#60 = PERSON_AND_ORGANIZATION ( #94, #9 ) ;
#61 = ORIENTED_EDGE ( 'NONE', *, *, #235, .T. ) ;
#62 = EDGE_LOOP ( 'NONE', ( #189, #228, #61, #188 ) ) ;
#63 = ORIENTED_EDGE ( 'NONE', *, *, #119, .F. ) ;
#64 = CARTESIAN_POINT ( 'NONE',  ( 0.000000000000000000, 0.000000000000000000, 3.000000000000000000 ) ) ;
#65 = ORIENTED_EDGE ( 'NONE', *, *, #198, .F. ) ;
#66 = VECTOR ( 'NONE', #88, 1000.000000000000000 ) ;
#67 = DIRECTION ( 'NONE',  ( -1.000000000000000000, 0.000000000000000000, 0.000000000000000000 ) ) ;
#68 = CARTESIAN_POINT ( 'NONE',  ( 0.000000000000000000, 0.000000000000000000, 3.000000000000000000 ) ) ;
#69 = CARTESIAN_POINT ( 'NONE',  ( -5.000000000000000000, 0.000000000000000000, 0.000000000000000000 ) ) ;
#70 = CC_DESIGN_PERSON_AND_ORGANIZATION_ASSIGNMENT ( #160, #162, ( #27 ) ) ;
#71 = CARTESIAN_POINT ( 'NONE',  ( -2.500000000000000000, 0.000000000000000000, 250.0000000000000000 ) ) ;
#72 =( LENGTH_UNIT ( ) NAMED_UNIT ( * ) SI_UNIT ( .MILLI., .METRE. ) );
#73 = AXIS2_PLACEMENT_3D ( 'NONE', #184, #172, #84 ) ;
#74 = CC_DESIGN_PERSON_AND_ORGANIZATION_ASSIGNMENT ( #55, #219, ( #187 ) ) ;
#75 = LOCAL_TIME ( 15, 37, 5.000000000000000000, #39 ) ;
#76 = CALENDAR_DATE ( 2023, 13, 2 ) ;
#77 = DIRECTION ( 'NONE',  ( 1.000000000000000000, 0.000000000000000000, 0.000000000000000000 ) ) ;
#78 = APPROVAL_STATUS ( 'not_yet_approved' ) ;
#79 = DIRECTION ( 'NONE',  ( 1.000000000000000000, 0.000000000000000000, 0.000000000000000000 ) ) ;
#80 = VERTEX_POINT ( 'NONE', #31 ) ;
#81 = ORIENTED_EDGE ( 'NONE', *, *, #216, .T. ) ;
#82 = DESIGN_CONTEXT ( 'detailed design', #208, 'design' ) ;
#83 = FACE_OUTER_BOUND ( 'NONE', #102, .T. ) ;
#84 = DIRECTION ( 'NONE',  ( -1.000000000000000000, 0.000000000000000000, 0.000000000000000000 ) ) ;
#85 = EDGE_CURVE ( 'NONE', #171, #146, #26, .T. ) ;
#86 = LINE ( 'NONE', #199, #131 ) ;
#87 = APPROVAL_PERSON_ORGANIZATION ( #19, #5, #118 ) ;
#88 = DIRECTION ( 'NONE',  ( -0.000000000000000000, -0.000000000000000000, -1.000000000000000000 ) ) ;
#89 = FACE_OUTER_BOUND ( 'NONE', #145, .T. ) ;
#90 = EDGE_CURVE ( 'NONE', #248, #126, #144, .T. ) ;
#91 = LINE ( 'NONE', #218, #200 ) ;
#92 = AXIS2_PLACEMENT_3D ( 'NONE', #109, #134, #212 ) ;
#93 = DIRECTION ( 'NONE',  ( 0.000000000000000000, 0.000000000000000000, 1.000000000000000000 ) ) ;
#94 = PERSON ( 'NEURÈENÝ', 'NEURÈENÝ', 'NEURÈENÝ', ('NEURÈENÝ'), ('NEURÈENÝ'), ('NEURÈENÝ') ) ;
#95 = APPLICATION_PROTOCOL_DEFINITION ( 'international standard', 'config_control_design', 1994, #208 ) ;
#96 = SHAPE_DEFINITION_REPRESENTATION ( #213, #155 ) ;
#97 = MECHANICAL_CONTEXT ( 'NONE', #195, 'mechanical' ) ;
#98 = PERSON_AND_ORGANIZATION ( #94, #9 ) ;
#99 = AXIS2_PLACEMENT_3D ( 'NONE', #132, #173, #67 ) ;
#100 = VERTEX_POINT ( 'NONE', #69 ) ;
#101 = ADVANCED_FACE ( 'NONE', ( #217 ), #214, .T. ) ;
#102 = EDGE_LOOP ( 'NONE', ( #121, #123, #11, #30 ) ) ;
#103 = CIRCLE ( 'NONE', #1, 2.500000000000000000 ) ;
#104 = DIRECTION ( 'NONE',  ( 0.000000000000000000, 0.000000000000000000, 1.000000000000000000 ) ) ;
#105 = EDGE_CURVE ( 'NONE', #100, #247, #185, .T. ) ;
#106 = CARTESIAN_POINT ( 'NONE',  ( 0.000000000000000000, 0.000000000000000000, 250.0000000000000000 ) ) ;
#107 = CARTESIAN_POINT ( 'NONE',  ( 0.000000000000000000, 0.000000000000000000, 250.0000000000000000 ) ) ;
#108 = CC_DESIGN_APPROVAL ( #33, ( #253 ) ) ;
#109 = CARTESIAN_POINT ( 'NONE',  ( 0.000000000000000000, 0.000000000000000000, 3.000000000000000000 ) ) ;
#110 = LINE ( 'NONE', #193, #66 ) ;
#111 = DIRECTION ( 'NONE',  ( -0.000000000000000000, -0.000000000000000000, -1.000000000000000000 ) ) ;
#112 = AXIS2_PLACEMENT_3D ( 'NONE', #166, #245, #142 ) ;
#113 = DIRECTION ( 'NONE',  ( 0.000000000000000000, 0.000000000000000000, 1.000000000000000000 ) ) ;
#114 = DATE_AND_TIME ( #159, #75 ) ;
#115 = DATE_AND_TIME ( #135, #225 ) ;
#116 = AXIS2_PLACEMENT_3D ( 'NONE', #106, #190, #79 ) ;
#117 = CIRCLE ( 'NONE', #34, 5.000000000000000000 ) ;
#118 = APPROVAL_ROLE ( '' ) ;
#119 = EDGE_CURVE ( 'NONE', #146, #171, #6, .T. ) ;
#120 = EDGE_LOOP ( 'NONE', ( #206, #209 ) ) ;
#121 = ORIENTED_EDGE ( 'NONE', *, *, #175, .F. ) ;
#122 = EDGE_LOOP ( 'NONE', ( #65, #249, #227, #8 ) ) ;
#123 = ORIENTED_EDGE ( 'NONE', *, *, #85, .F. ) ;
#124 = CC_DESIGN_SECURITY_CLASSIFICATION ( #253, ( #187 ) ) ;
#125 = UNCERTAINTY_MEASURE_WITH_UNIT (LENGTH_MEASURE( 1.000000000000000082E-05 ), #72, 'distance_accuracy_value', 'NONE');
#126 = VERTEX_POINT ( 'NONE', #176 ) ;
#127 = DIRECTION ( 'NONE',  ( -1.000000000000000000, 0.000000000000000000, 0.000000000000000000 ) ) ;
#128 = CLOSED_SHELL ( 'NONE', ( #222, #186, #101, #41, #165, #57, #130 ) ) ;
#129 = DIRECTION ( 'NONE',  ( 0.000000000000000000, 0.000000000000000000, 1.000000000000000000 ) ) ;
#130 = ADVANCED_FACE ( 'NONE', ( #12 ), #37, .T. ) ;
#131 = VECTOR ( 'NONE', #196, 1000.000000000000000 ) ;
#132 = CARTESIAN_POINT ( 'NONE',  ( 0.000000000000000000, 0.000000000000000000, 250.0000000000000000 ) ) ;
#133 = DIRECTION ( 'NONE',  ( 1.000000000000000000, 0.000000000000000000, 0.000000000000000000 ) ) ;
#134 = DIRECTION ( 'NONE',  ( -0.000000000000000000, -0.000000000000000000, -1.000000000000000000 ) ) ;
#135 = CALENDAR_DATE ( 2023, 13, 2 ) ;
#136 = COORDINATED_UNIVERSAL_TIME_OFFSET ( 1, 0, .AHEAD. ) ;
#137 = AXIS2_PLACEMENT_3D ( 'NONE', #237, #93, #38 ) ;
#138 = EDGE_CURVE ( 'NONE', #211, #80, #103, .T. ) ;
#139 = AXIS2_PLACEMENT_3D ( 'NONE', #3, #140, #77 ) ;
#140 = DIRECTION ( 'NONE',  ( 0.000000000000000000, 0.000000000000000000, 1.000000000000000000 ) ) ;
#141 = APPROVAL_DATE_TIME ( #4, #5 ) ;
#142 = DIRECTION ( 'NONE',  ( 1.000000000000000000, 0.000000000000000000, 0.000000000000000000 ) ) ;
#143 = VECTOR ( 'NONE', #236, 1000.000000000000000 ) ;
#144 = CIRCLE ( 'NONE', #112, 5.000000000000000000 ) ;
#145 = EDGE_LOOP ( 'NONE', ( #63, #29, #81, #28 ) ) ;
#146 = VERTEX_POINT ( 'NONE', #150 ) ;
#147 = CYLINDRICAL_SURFACE ( 'NONE', #73, 2.500000000000000000 ) ;
#148 = EDGE_LOOP ( 'NONE', ( #43, #226 ) ) ;
#149 = APPROVAL_PERSON_ORGANIZATION ( #60, #33, #239 ) ;
#150 = CARTESIAN_POINT ( 'NONE',  ( 2.500000000000000000, 3.061616997868383141E-16, 250.0000000000000000 ) ) ;
#151 = DIRECTION ( 'NONE',  ( 1.000000000000000000, 0.000000000000000000, 0.000000000000000000 ) ) ;
#152 = DIRECTION ( 'NONE',  ( -0.000000000000000000, -0.000000000000000000, -1.000000000000000000 ) ) ;
#153 = DIRECTION ( 'NONE',  ( 0.000000000000000000, 0.000000000000000000, 1.000000000000000000 ) ) ;
#154 = PRODUCT_RELATED_PRODUCT_CATEGORY ( 'detail', '', ( #17 ) ) ;
#155 = ADVANCED_BREP_SHAPE_REPRESENTATION ( '11cc', ( #201, #139 ), #158 ) ;
#156 = LINE ( 'NONE', #50, #143 ) ;
#157 =( NAMED_UNIT ( * ) PLANE_ANGLE_UNIT ( ) SI_UNIT ( $, .RADIAN. ) );
#158 =( GEOMETRIC_REPRESENTATION_CONTEXT ( 3 ) GLOBAL_UNCERTAINTY_ASSIGNED_CONTEXT ( ( #125 ) ) GLOBAL_UNIT_ASSIGNED_CONTEXT ( ( #72, #157, #20 ) ) REPRESENTATION_CONTEXT ( 'NONE', 'WORKASPACE' ) );
#159 = CALENDAR_DATE ( 2023, 13, 2 ) ;
#160 = PERSON_AND_ORGANIZATION ( #94, #9 ) ;
#161 = CC_DESIGN_DATE_AND_TIME_ASSIGNMENT ( #114, #164, ( #253 ) ) ;
#162 = PERSON_AND_ORGANIZATION_ROLE ( 'creator' ) ;
#163 = AXIS2_PLACEMENT_3D ( 'NONE', #68, #152, #127 ) ;
#164 = DATE_TIME_ROLE ( 'classification_date' ) ;
#165 = ADVANCED_FACE ( 'NONE', ( #252 ), #254, .F. ) ;
#166 = CARTESIAN_POINT ( 'NONE',  ( 0.000000000000000000, 0.000000000000000000, 3.000000000000000000 ) ) ;
#167 = PLANE ( 'NONE',  #233 ) ;
#168 = CIRCLE ( 'NONE', #13, 2.500000000000000000 ) ;
#169 = LOCAL_TIME ( 15, 37, 5.000000000000000000, #220 ) ;
#170 = EDGE_LOOP ( 'NONE', ( #10, #47 ) ) ;
#171 = VERTEX_POINT ( 'NONE', #71 ) ;
#172 = DIRECTION ( 'NONE',  ( -0.000000000000000000, -0.000000000000000000, -1.000000000000000000 ) ) ;
#173 = DIRECTION ( 'NONE',  ( -0.000000000000000000, -0.000000000000000000, -1.000000000000000000 ) ) ;
#174 = LOCAL_TIME ( 15, 37, 5.000000000000000000, #136 ) ;
#175 = EDGE_CURVE ( 'NONE', #146, #80, #156, .T. ) ;
#176 = CARTESIAN_POINT ( 'NONE',  ( 5.000000000000000000, 6.123233995736766282E-16, 3.000000000000000000 ) ) ;
#177 = DIRECTION ( 'NONE',  ( 0.000000000000000000, 0.000000000000000000, 1.000000000000000000 ) ) ;
#178 = DIRECTION ( 'NONE',  ( 0.000000000000000000, 0.000000000000000000, 1.000000000000000000 ) ) ;
#179 = CC_DESIGN_DATE_AND_TIME_ASSIGNMENT ( #2, #241, ( #27 ) ) ;
#180 = CARTESIAN_POINT ( 'NONE',  ( 0.000000000000000000, 0.000000000000000000, 0.000000000000000000 ) ) ;
#181 = CALENDAR_DATE ( 2023, 13, 2 ) ;
#182 = PERSON_AND_ORGANIZATION ( #94, #9 ) ;
#183 = ORIENTED_EDGE ( 'NONE', *, *, #216, .F. ) ;
#184 = CARTESIAN_POINT ( 'NONE',  ( 0.000000000000000000, 0.000000000000000000, 250.0000000000000000 ) ) ;
#185 = CIRCLE ( 'NONE', #224, 5.000000000000000000 ) ;
#186 = ADVANCED_FACE ( 'NONE', ( #250 ), #234, .T. ) ;
#187 = PRODUCT_DEFINITION_FORMATION_WITH_SPECIFIED_SOURCE ( 'LIBOVOLNÝ', '', #17, .NOT_KNOWN. ) ;
#188 = ORIENTED_EDGE ( 'NONE', *, *, #191, .F. ) ;
#189 = ORIENTED_EDGE ( 'NONE', *, *, #207, .F. ) ;
#190 = DIRECTION ( 'NONE',  ( 0.000000000000000000, 0.000000000000000000, 1.000000000000000000 ) ) ;
#191 = EDGE_CURVE ( 'NONE', #248, #100, #91, .T. ) ;
#192 = AXIS2_PLACEMENT_3D ( 'NONE', #35, #232, #14 ) ;
#193 = CARTESIAN_POINT ( 'NONE',  ( -2.500000000000000000, 0.000000000000000000, 250.0000000000000000 ) ) ;
#194 = CC_DESIGN_APPROVAL ( #229, ( #187 ) ) ;
#195 = APPLICATION_CONTEXT ( 'configuration controlled 3d designs of mechanical parts and assemblies' ) ;
#196 = DIRECTION ( 'NONE',  ( -0.000000000000000000, -0.000000000000000000, -1.000000000000000000 ) ) ;
#197 = DIRECTION ( 'NONE',  ( 1.000000000000000000, 0.000000000000000000, 0.000000000000000000 ) ) ;
#198 = EDGE_CURVE ( 'NONE', #126, #247, #86, .T. ) ;
#199 = CARTESIAN_POINT ( 'NONE',  ( 5.000000000000000000, 6.123233995736766282E-16, 3.000000000000000000 ) ) ;
#200 = VECTOR ( 'NONE', #111, 1000.000000000000000 ) ;
#201 = MANIFOLD_SOLID_BREP ( 'Pøidat vysunutím3', #128 ) ;
#202 = APPROVAL_DATE_TIME ( #255, #229 ) ;
#203 = PERSON_AND_ORGANIZATION_ROLE ( 'design_owner' ) ;
#204 = COORDINATED_UNIVERSAL_TIME_OFFSET ( 1, 0, .AHEAD. ) ;
#205 = LOCAL_TIME ( 15, 37, 5.000000000000000000, #204 ) ;
#206 = ORIENTED_EDGE ( 'NONE', *, *, #105, .F. ) ;
#207 = EDGE_CURVE ( 'NONE', #126, #248, #243, .T. ) ;
#208 = APPLICATION_CONTEXT ( 'configuration controlled 3d designs of mechanical parts and assemblies' ) ;
#209 = ORIENTED_EDGE ( 'NONE', *, *, #235, .F. ) ;
#210 = FACE_BOUND ( 'NONE', #45, .T. ) ;
#211 = VERTEX_POINT ( 'NONE', #32 ) ;
#212 = DIRECTION ( 'NONE',  ( -1.000000000000000000, 0.000000000000000000, 0.000000000000000000 ) ) ;
#213 = PRODUCT_DEFINITION_SHAPE ( 'NONE', 'NONE',  #27 ) ;
#214 = CYLINDRICAL_SURFACE ( 'NONE', #163, 5.000000000000000000 ) ;
#215 = CARTESIAN_POINT ( 'NONE',  ( 5.000000000000000000, 6.123233995736766282E-16, 0.000000000000000000 ) ) ;
#216 = EDGE_CURVE ( 'NONE', #80, #211, #168, .T. ) ;
#217 = FACE_OUTER_BOUND ( 'NONE', #122, .T. ) ;
#218 = CARTESIAN_POINT ( 'NONE',  ( -5.000000000000000000, 0.000000000000000000, 3.000000000000000000 ) ) ;
#219 = PERSON_AND_ORGANIZATION_ROLE ( 'design_supplier' ) ;
#220 = COORDINATED_UNIVERSAL_TIME_OFFSET ( 1, 0, .AHEAD. ) ;
#221 = PERSON_AND_ORGANIZATION_ROLE ( 'creator' ) ;
#222 = ADVANCED_FACE ( 'NONE', ( #89 ), #16, .T. ) ;
#223 = APPROVAL_ROLE ( '' ) ;
#224 = AXIS2_PLACEMENT_3D ( 'NONE', #180, #177, #151 ) ;
#225 = LOCAL_TIME ( 15, 37, 5.000000000000000000, #56 ) ;
#226 = ORIENTED_EDGE ( 'NONE', *, *, #119, .T. ) ;
#227 = ORIENTED_EDGE ( 'NONE', *, *, #191, .T. ) ;
#228 = ORIENTED_EDGE ( 'NONE', *, *, #198, .T. ) ;
#229 = APPROVAL ( #78, 'NEURÈENÝ' ) ;
#230 = ORIENTED_EDGE ( 'NONE', *, *, #138, .F. ) ;
#231 = CARTESIAN_POINT ( 'NONE',  ( 0.000000000000000000, 0.000000000000000000, 3.000000000000000000 ) ) ;
#232 = DIRECTION ( 'NONE',  ( 0.000000000000000000, 0.000000000000000000, 1.000000000000000000 ) ) ;
#233 = AXIS2_PLACEMENT_3D ( 'NONE', #64, #104, #246 ) ;
#234 = CYLINDRICAL_SURFACE ( 'NONE', #92, 5.000000000000000000 ) ;
#235 = EDGE_CURVE ( 'NONE', #247, #100, #117, .T. ) ;
#236 = DIRECTION ( 'NONE',  ( -0.000000000000000000, -0.000000000000000000, -1.000000000000000000 ) ) ;
#237 = CARTESIAN_POINT ( 'NONE',  ( 0.000000000000000000, 0.000000000000000000, 0.000000000000000000 ) ) ;
#238 = AXIS2_PLACEMENT_3D ( 'NONE', #107, #129, #53 ) ;
#239 = APPROVAL_ROLE ( '' ) ;
#240 = PERSON_AND_ORGANIZATION ( #94, #9 ) ;
#241 = DATE_TIME_ROLE ( 'creation_date' ) ;
#242 = EDGE_CURVE ( 'NONE', #171, #211, #110, .T. ) ;
#243 = CIRCLE ( 'NONE', #22, 5.000000000000000000 ) ;
#244 = APPROVAL_STATUS ( 'not_yet_approved' ) ;
#245 = DIRECTION ( 'NONE',  ( 0.000000000000000000, 0.000000000000000000, 1.000000000000000000 ) ) ;
#246 = DIRECTION ( 'NONE',  ( 1.000000000000000000, 0.000000000000000000, -0.000000000000000000 ) ) ;
#247 = VERTEX_POINT ( 'NONE', #215 ) ;
#248 = VERTEX_POINT ( 'NONE', #36 ) ;
#249 = ORIENTED_EDGE ( 'NONE', *, *, #90, .F. ) ;
#250 = FACE_OUTER_BOUND ( 'NONE', #62, .T. ) ;
#251 = CARTESIAN_POINT ( 'NONE',  ( 0.000000000000000000, 0.000000000000000000, 3.000000000000000000 ) ) ;
#252 = FACE_OUTER_BOUND ( 'NONE', #120, .T. ) ;
#253 = SECURITY_CLASSIFICATION ( '', '', #59 ) ;
#254 = PLANE ( 'NONE',  #137 ) ;
#255 = DATE_AND_TIME ( #76, #169 ) ;
ENDSEC;
END-ISO-10303-21;
