ISO-10303-21;
HEADER;
FILE_DESCRIPTION (( 'STEP AP203' ),
    '1' );
FILE_NAME ('eb13.STEP',
    '2023-01-31T14:34:07',
    ( '' ),
    ( '' ),
    'SwSTEP 2.0',
    'SolidWorks 2019',
    '' );
FILE_SCHEMA (( 'CONFIG_CONTROL_DESIGN' ));
ENDSEC;

DATA;
#1 = DIRECTION ( 'NONE',  ( 1.000000000000000000, 0.000000000000000000, 0.000000000000000000 ) ) ;
#2 = ADVANCED_FACE ( 'NONE', ( #107 ), #226, .F. ) ;
#3 = VECTOR ( 'NONE', #94, 1000.000000000000000 ) ;
#4 = ORIENTED_EDGE ( 'NONE', *, *, #140, .T. ) ;
#5 = AXIS2_PLACEMENT_3D ( 'NONE', #77, #141, #122 ) ;
#6 = APPLICATION_CONTEXT ( 'configuration controlled 3d designs of mechanical parts and assemblies' ) ;
#7 = EDGE_LOOP ( 'NONE', ( #166, #206, #89, #50 ) ) ;
#8 = AXIS2_PLACEMENT_3D ( 'NONE', #19, #221, #41 ) ;
#9 = CALENDAR_DATE ( 2023, 31, 1 ) ;
#10 = DIRECTION ( 'NONE',  ( 1.000000000000000000, 0.000000000000000000, -0.000000000000000000 ) ) ;
#11 = APPROVAL_DATE_TIME ( #195, #108 ) ;
#12 = CC_DESIGN_DATE_AND_TIME_ASSIGNMENT ( #211, #91, ( #231 ) ) ;
#13 = LINE ( 'NONE', #155, #3 ) ;
#14 = DIRECTION ( 'NONE',  ( -1.000000000000000000, 0.000000000000000000, 0.000000000000000000 ) ) ;
#15 = DIRECTION ( 'NONE',  ( 0.000000000000000000, 0.000000000000000000, 1.000000000000000000 ) ) ;
#16 = CARTESIAN_POINT ( 'NONE',  ( 0.000000000000000000, 0.000000000000000000, 100.0000000000000000 ) ) ;
#17 = CARTESIAN_POINT ( 'NONE',  ( -0.5000000000000000000, 0.000000000000000000, 1.199999999999999956 ) ) ;
#18 = EDGE_CURVE ( 'NONE', #186, #188, #98, .T. ) ;
#19 = CARTESIAN_POINT ( 'NONE',  ( 0.000000000000000000, 0.000000000000000000, 100.0000000000000000 ) ) ;
#20 = LINE ( 'NONE', #184, #151 ) ;
#21 = APPLICATION_PROTOCOL_DEFINITION ( 'international standard', 'config_control_design', 1994, #6 ) ;
#22 = ORIENTED_EDGE ( 'NONE', *, *, #227, .F. ) ;
#23 = MANIFOLD_SOLID_BREP ( 'Pøidat vysunutím3', #150 ) ;
#24 = CC_DESIGN_DATE_AND_TIME_ASSIGNMENT ( #229, #149, ( #145 ) ) ;
#25 = ORIENTED_EDGE ( 'NONE', *, *, #228, .T. ) ;
#26 = APPROVAL_PERSON_ORGANIZATION ( #58, #114, #76 ) ;
#27 = ORIENTED_EDGE ( 'NONE', *, *, #227, .T. ) ;
#28 = VERTEX_POINT ( 'NONE', #174 ) ;
#29 = DATE_AND_TIME ( #214, #95 ) ;
#30 = DATE_AND_TIME ( #112, #66 ) ;
#31 = CARTESIAN_POINT ( 'NONE',  ( 0.000000000000000000, 0.000000000000000000, 1.199999999999999956 ) ) ;
#32 = PERSON_AND_ORGANIZATION_ROLE ( 'classification_officer' ) ;
#33 = APPROVAL_STATUS ( 'not_yet_approved' ) ;
#34 = FACE_BOUND ( 'NONE', #208, .T. ) ;
#35 = APPROVAL_DATE_TIME ( #29, #237 ) ;
#36 = ADVANCED_FACE ( 'NONE', ( #34, #232 ), #117, .T. ) ;
#37 = FACE_OUTER_BOUND ( 'NONE', #7, .T. ) ;
#38 = DIRECTION ( 'NONE',  ( 0.000000000000000000, 0.000000000000000000, 1.000000000000000000 ) ) ;
#39 = DIRECTION ( 'NONE',  ( -0.000000000000000000, -0.000000000000000000, -1.000000000000000000 ) ) ;
#40 = CIRCLE ( 'NONE', #5, 0.5000000000000000000 ) ;
#41 = DIRECTION ( 'NONE',  ( -1.000000000000000000, 0.000000000000000000, 0.000000000000000000 ) ) ;
#42 = CC_DESIGN_PERSON_AND_ORGANIZATION_ASSIGNMENT ( #191, #109, ( #167 ) ) ;
#43 = DIRECTION ( 'NONE',  ( 0.000000000000000000, 0.000000000000000000, 1.000000000000000000 ) ) ;
#44 = AXIS2_PLACEMENT_3D ( 'NONE', #159, #138, #218 ) ;
#45 = DIRECTION ( 'NONE',  ( 0.000000000000000000, 0.000000000000000000, 1.000000000000000000 ) ) ;
#46 = EDGE_LOOP ( 'NONE', ( #49, #164 ) ) ;
#47 = AXIS2_PLACEMENT_3D ( 'NONE', #183, #43, #1 ) ;
#48 = EDGE_CURVE ( 'NONE', #245, #126, #13, .T. ) ;
#49 = ORIENTED_EDGE ( 'NONE', *, *, #165, .F. ) ;
#50 = ORIENTED_EDGE ( 'NONE', *, *, #121, .F. ) ;
#51 = CARTESIAN_POINT ( 'NONE',  ( 0.000000000000000000, 0.000000000000000000, 0.000000000000000000 ) ) ;
#52 = ORIENTED_EDGE ( 'NONE', *, *, #228, .F. ) ;
#53 = CARTESIAN_POINT ( 'NONE',  ( -0.5000000000000000000, 0.000000000000000000, 100.0000000000000000 ) ) ;
#54 = PERSON_AND_ORGANIZATION ( #68, #135 ) ;
#55 = DIRECTION ( 'NONE',  ( 1.000000000000000000, 0.000000000000000000, -0.000000000000000000 ) ) ;
#56 = DIRECTION ( 'NONE',  ( -0.000000000000000000, -0.000000000000000000, -1.000000000000000000 ) ) ;
#57 = CC_DESIGN_APPROVAL ( #237, ( #167 ) ) ;
#58 = PERSON_AND_ORGANIZATION ( #68, #135 ) ;
#59 = APPROVAL_ROLE ( '' ) ;
#60 = DIRECTION ( 'NONE',  ( 1.000000000000000000, 0.000000000000000000, 0.000000000000000000 ) ) ;
#61 = FACE_OUTER_BOUND ( 'NONE', #83, .T. ) ;
#62 = APPROVAL_PERSON_ORGANIZATION ( #172, #108, #115 ) ;
#63 = DIRECTION ( 'NONE',  ( -1.000000000000000000, 0.000000000000000000, 0.000000000000000000 ) ) ;
#64 = ADVANCED_FACE ( 'NONE', ( #178 ), #230, .T. ) ;
#65 = ORIENTED_EDGE ( 'NONE', *, *, #48, .F. ) ;
#66 = LOCAL_TIME ( 15, 34, 7.000000000000000000, #251 ) ;
#67 =( NAMED_UNIT ( * ) PLANE_ANGLE_UNIT ( ) SI_UNIT ( $, .RADIAN. ) );
#68 = PERSON ( 'NEURÈENÝ', 'NEURÈENÝ', 'NEURÈENÝ', ('NEURÈENÝ'), ('NEURÈENÝ'), ('NEURÈENÝ') ) ;
#69 = EDGE_CURVE ( 'NONE', #125, #105, #96, .T. ) ;
#70 = ORIENTED_EDGE ( 'NONE', *, *, #140, .F. ) ;
#71 = LOCAL_TIME ( 15, 34, 7.000000000000000000, #192 ) ;
#72 = CIRCLE ( 'NONE', #47, 0.5000000000000000000 ) ;
#73 = ORIENTED_EDGE ( 'NONE', *, *, #165, .T. ) ;
#74 = DIRECTION ( 'NONE',  ( 0.000000000000000000, 0.000000000000000000, 1.000000000000000000 ) ) ;
#75 = PERSON_AND_ORGANIZATION ( #68, #135 ) ;
#76 = APPROVAL_ROLE ( '' ) ;
#77 = CARTESIAN_POINT ( 'NONE',  ( 0.000000000000000000, 0.000000000000000000, 100.0000000000000000 ) ) ;
#78 = CIRCLE ( 'NONE', #106, 1.250000000000000000 ) ;
#79 = AXIS2_PLACEMENT_3D ( 'NONE', #162, #240, #63 ) ;
#80 = PLANE ( 'NONE',  #90 ) ;
#81 = CARTESIAN_POINT ( 'NONE',  ( 0.000000000000000000, 0.000000000000000000, 1.199999999999999956 ) ) ;
#82 = CYLINDRICAL_SURFACE ( 'NONE', #79, 1.250000000000000000 ) ;
#83 = EDGE_LOOP ( 'NONE', ( #4, #27 ) ) ;
#84 = VECTOR ( 'NONE', #120, 1000.000000000000000 ) ;
#85 = ORIENTED_EDGE ( 'NONE', *, *, #69, .F. ) ;
#86 = AXIS2_PLACEMENT_3D ( 'NONE', #81, #15, #161 ) ;
#87 = LOCAL_TIME ( 15, 34, 7.000000000000000000, #133 ) ;
#88 = ORIENTED_EDGE ( 'NONE', *, *, #213, .F. ) ;
#89 = ORIENTED_EDGE ( 'NONE', *, *, #18, .T. ) ;
#90 = AXIS2_PLACEMENT_3D ( 'NONE', #137, #38, #201 ) ;
#91 = DATE_TIME_ROLE ( 'classification_date' ) ;
#92 = PERSON_AND_ORGANIZATION_ROLE ( 'design_owner' ) ;
#93 = ADVANCED_BREP_SHAPE_REPRESENTATION ( 'eb13', ( #23, #180 ), #139 ) ;
#94 = DIRECTION ( 'NONE',  ( -0.000000000000000000, -0.000000000000000000, -1.000000000000000000 ) ) ;
#95 = LOCAL_TIME ( 15, 34, 7.000000000000000000, #234 ) ;
#96 = LINE ( 'NONE', #53, #224 ) ;
#97 = CARTESIAN_POINT ( 'NONE',  ( 0.5000000000000000000, 6.123233995736766036E-17, 100.0000000000000000 ) ) ;
#98 = CIRCLE ( 'NONE', #243, 1.250000000000000000 ) ;
#99 = CARTESIAN_POINT ( 'NONE',  ( 0.5000000000000000000, 6.123233995736766036E-17, 1.199999999999999956 ) ) ;
#100 = CC_DESIGN_PERSON_AND_ORGANIZATION_ASSIGNMENT ( #75, #146, ( #145 ) ) ;
#101 = UNCERTAINTY_MEASURE_WITH_UNIT (LENGTH_MEASURE( 1.000000000000000082E-05 ), #158, 'distance_accuracy_value', 'NONE');
#102 = CYLINDRICAL_SURFACE ( 'NONE', #44, 0.5000000000000000000 ) ;
#103 = DIRECTION ( 'NONE',  ( -0.000000000000000000, -0.000000000000000000, -1.000000000000000000 ) ) ;
#104 = LINE ( 'NONE', #200, #84 ) ;
#105 = VERTEX_POINT ( 'NONE', #17 ) ;
#106 = AXIS2_PLACEMENT_3D ( 'NONE', #202, #239, #254 ) ;
#107 = FACE_OUTER_BOUND ( 'NONE', #46, .T. ) ;
#108 = APPROVAL ( #33, 'NEURÈENÝ' ) ;
#109 = PERSON_AND_ORGANIZATION_ROLE ( 'creator' ) ;
#110 = CC_DESIGN_PERSON_AND_ORGANIZATION_ASSIGNMENT ( #148, #32, ( #231 ) ) ;
#111 = AXIS2_PLACEMENT_3D ( 'NONE', #156, #236, #60 ) ;
#112 = CALENDAR_DATE ( 2023, 31, 1 ) ;
#113 = CALENDAR_DATE ( 2023, 31, 1 ) ;
#114 = APPROVAL ( #175, 'NEURÈENÝ' ) ;
#115 = APPROVAL_ROLE ( '' ) ;
#116 = DIRECTION ( 'NONE',  ( 0.000000000000000000, 0.000000000000000000, 1.000000000000000000 ) ) ;
#117 = PLANE ( 'NONE',  #219 ) ;
#118 = DIRECTION ( 'NONE',  ( 0.000000000000000000, 0.000000000000000000, 1.000000000000000000 ) ) ;
#119 = FACE_OUTER_BOUND ( 'NONE', #128, .T. ) ;
#120 = DIRECTION ( 'NONE',  ( -0.000000000000000000, -0.000000000000000000, -1.000000000000000000 ) ) ;
#121 = EDGE_CURVE ( 'NONE', #129, #188, #104, .T. ) ;
#122 = DIRECTION ( 'NONE',  ( 1.000000000000000000, 0.000000000000000000, 0.000000000000000000 ) ) ;
#123 = AXIS2_PLACEMENT_3D ( 'NONE', #235, #56, #14 ) ;
#124 = DIRECTION ( 'NONE',  ( 1.000000000000000000, 0.000000000000000000, 0.000000000000000000 ) ) ;
#125 = VERTEX_POINT ( 'NONE', #217 ) ;
#126 = VERTEX_POINT ( 'NONE', #99 ) ;
#127 = AXIS2_PLACEMENT_3D ( 'NONE', #16, #118, #182 ) ;
#128 = EDGE_LOOP ( 'NONE', ( #65, #70, #225, #25 ) ) ;
#129 = VERTEX_POINT ( 'NONE', #255 ) ;
#130 = PRODUCT_DEFINITION_SHAPE ( 'NONE', 'NONE',  #145 ) ;
#131 = ADVANCED_FACE ( 'NONE', ( #119 ), #199, .T. ) ;
#132 = APPLICATION_PROTOCOL_DEFINITION ( 'international standard', 'config_control_design', 1994, #147 ) ;
#133 = COORDINATED_UNIVERSAL_TIME_OFFSET ( 1, 0, .AHEAD. ) ;
#134 = APPROVAL_DATE_TIME ( #30, #114 ) ;
#135 = ORGANIZATION ( 'NEURÈENÝ', 'NEURÈENÝ', '' ) ;
#136 = CARTESIAN_POINT ( 'NONE',  ( 0.000000000000000000, 0.000000000000000000, 1.199999999999999956 ) ) ;
#137 = CARTESIAN_POINT ( 'NONE',  ( 0.000000000000000000, 0.000000000000000000, 100.0000000000000000 ) ) ;
#138 = DIRECTION ( 'NONE',  ( -0.000000000000000000, -0.000000000000000000, -1.000000000000000000 ) ) ;
#139 =( GEOMETRIC_REPRESENTATION_CONTEXT ( 3 ) GLOBAL_UNCERTAINTY_ASSIGNED_CONTEXT ( ( #101 ) ) GLOBAL_UNIT_ASSIGNED_CONTEXT ( ( #158, #67, #207 ) ) REPRESENTATION_CONTEXT ( 'NONE', 'WORKASPACE' ) );
#140 = EDGE_CURVE ( 'NONE', #125, #245, #144, .T. ) ;
#141 = DIRECTION ( 'NONE',  ( 0.000000000000000000, 0.000000000000000000, 1.000000000000000000 ) ) ;
#142 = ORIENTED_EDGE ( 'NONE', *, *, #197, .T. ) ;
#143 = EDGE_LOOP ( 'NONE', ( #22, #205, #190, #85 ) ) ;
#144 = CIRCLE ( 'NONE', #127, 0.5000000000000000000 ) ;
#145 = PRODUCT_DEFINITION ( 'NEZNÁMÝ', '', #167, #196 ) ;
#146 = PERSON_AND_ORGANIZATION_ROLE ( 'creator' ) ;
#147 = APPLICATION_CONTEXT ( 'configuration controlled 3d designs of mechanical parts and assemblies' ) ;
#148 = PERSON_AND_ORGANIZATION ( #68, #135 ) ;
#149 = DATE_TIME_ROLE ( 'creation_date' ) ;
#150 = CLOSED_SHELL ( 'NONE', ( #194, #220, #64, #36, #2, #131, #187 ) ) ;
#151 = VECTOR ( 'NONE', #103, 1000.000000000000000 ) ;
#152 = CC_DESIGN_APPROVAL ( #108, ( #231 ) ) ;
#153 = PERSON_AND_ORGANIZATION_ROLE ( 'design_supplier' ) ;
#154 = PERSON_AND_ORGANIZATION ( #68, #135 ) ;
#155 = CARTESIAN_POINT ( 'NONE',  ( 0.5000000000000000000, 6.123233995736766036E-17, 100.0000000000000000 ) ) ;
#156 = CARTESIAN_POINT ( 'NONE',  ( 0.000000000000000000, 0.000000000000000000, 1.199999999999999956 ) ) ;
#157 = CIRCLE ( 'NONE', #86, 1.250000000000000000 ) ;
#158 =( LENGTH_UNIT ( ) NAMED_UNIT ( * ) SI_UNIT ( .MILLI., .METRE. ) );
#159 = CARTESIAN_POINT ( 'NONE',  ( 0.000000000000000000, 0.000000000000000000, 100.0000000000000000 ) ) ;
#160 = PRODUCT ( 'eb13', 'eb13', '', ( #168 ) ) ;
#161 = DIRECTION ( 'NONE',  ( 1.000000000000000000, 0.000000000000000000, 0.000000000000000000 ) ) ;
#162 = CARTESIAN_POINT ( 'NONE',  ( 0.000000000000000000, 0.000000000000000000, 1.199999999999999956 ) ) ;
#163 = LOCAL_TIME ( 15, 34, 7.000000000000000000, #210 ) ;
#164 = ORIENTED_EDGE ( 'NONE', *, *, #18, .F. ) ;
#165 = EDGE_CURVE ( 'NONE', #188, #186, #78, .T. ) ;
#166 = ORIENTED_EDGE ( 'NONE', *, *, #197, .F. ) ;
#167 = PRODUCT_DEFINITION_FORMATION_WITH_SPECIFIED_SOURCE ( 'LIBOVOLNÝ', '', #160, .NOT_KNOWN. ) ;
#168 = MECHANICAL_CONTEXT ( 'NONE', #6, 'mechanical' ) ;
#169 = ORIENTED_EDGE ( 'NONE', *, *, #204, .F. ) ;
#170 = SHAPE_DEFINITION_REPRESENTATION ( #130, #93 ) ;
#171 = ORIENTED_EDGE ( 'NONE', *, *, #121, .T. ) ;
#172 = PERSON_AND_ORGANIZATION ( #68, #135 ) ;
#173 = APPROVAL_STATUS ( 'not_yet_approved' ) ;
#174 = CARTESIAN_POINT ( 'NONE',  ( 1.250000000000000000, 1.530808498934191571E-16, 1.199999999999999956 ) ) ;
#175 = APPROVAL_STATUS ( 'not_yet_approved' ) ;
#176 = DIRECTION ( 'NONE',  ( 1.000000000000000000, 0.000000000000000000, 0.000000000000000000 ) ) ;
#177 = APPROVAL_PERSON_ORGANIZATION ( #154, #237, #59 ) ;
#178 = FACE_OUTER_BOUND ( 'NONE', #209, .T. ) ;
#179 = DIRECTION ( 'NONE',  ( 0.000000000000000000, 0.000000000000000000, 1.000000000000000000 ) ) ;
#180 = AXIS2_PLACEMENT_3D ( 'NONE', #223, #45, #124 ) ;
#181 = CARTESIAN_POINT ( 'NONE',  ( 1.250000000000000000, 1.530808498934191571E-16, 0.000000000000000000 ) ) ;
#182 = DIRECTION ( 'NONE',  ( 1.000000000000000000, 0.000000000000000000, 0.000000000000000000 ) ) ;
#183 = CARTESIAN_POINT ( 'NONE',  ( 0.000000000000000000, 0.000000000000000000, 1.199999999999999956 ) ) ;
#184 = CARTESIAN_POINT ( 'NONE',  ( 1.250000000000000000, 1.530808498934191571E-16, 1.199999999999999956 ) ) ;
#185 = PERSON_AND_ORGANIZATION ( #68, #135 ) ;
#186 = VERTEX_POINT ( 'NONE', #181 ) ;
#187 = ADVANCED_FACE ( 'NONE', ( #61 ), #80, .T. ) ;
#188 = VERTEX_POINT ( 'NONE', #238 ) ;
#189 = CC_DESIGN_SECURITY_CLASSIFICATION ( #231, ( #167 ) ) ;
#190 = ORIENTED_EDGE ( 'NONE', *, *, #213, .T. ) ;
#191 = PERSON_AND_ORGANIZATION ( #68, #135 ) ;
#192 = COORDINATED_UNIVERSAL_TIME_OFFSET ( 1, 0, .AHEAD. ) ;
#193 = SECURITY_CLASSIFICATION_LEVEL ( 'unclassified' ) ;
#194 = ADVANCED_FACE ( 'NONE', ( #222 ), #102, .T. ) ;
#195 = DATE_AND_TIME ( #250, #87 ) ;
#196 = DESIGN_CONTEXT ( 'detailed design', #147, 'design' ) ;
#197 = EDGE_CURVE ( 'NONE', #28, #129, #157, .T. ) ;
#198 = CARTESIAN_POINT ( 'NONE',  ( 0.000000000000000000, 0.000000000000000000, 0.000000000000000000 ) ) ;
#199 = CYLINDRICAL_SURFACE ( 'NONE', #8, 0.5000000000000000000 ) ;
#200 = CARTESIAN_POINT ( 'NONE',  ( -1.250000000000000000, 0.000000000000000000, 1.199999999999999956 ) ) ;
#201 = DIRECTION ( 'NONE',  ( 1.000000000000000000, 0.000000000000000000, -0.000000000000000000 ) ) ;
#202 = CARTESIAN_POINT ( 'NONE',  ( 0.000000000000000000, 0.000000000000000000, 0.000000000000000000 ) ) ;
#203 = AXIS2_PLACEMENT_3D ( 'NONE', #51, #74, #55 ) ;
#204 = EDGE_CURVE ( 'NONE', #28, #186, #20, .T. ) ;
#205 = ORIENTED_EDGE ( 'NONE', *, *, #48, .T. ) ;
#206 = ORIENTED_EDGE ( 'NONE', *, *, #204, .T. ) ;
#207 =( NAMED_UNIT ( * ) SI_UNIT ( $, .STERADIAN. ) SOLID_ANGLE_UNIT ( ) );
#208 = EDGE_LOOP ( 'NONE', ( #52, #88 ) ) ;
#209 = EDGE_LOOP ( 'NONE', ( #169, #246, #171, #73 ) ) ;
#210 = COORDINATED_UNIVERSAL_TIME_OFFSET ( 1, 0, .AHEAD. ) ;
#211 = DATE_AND_TIME ( #9, #71 ) ;
#212 = DIRECTION ( 'NONE',  ( 0.000000000000000000, 0.000000000000000000, 1.000000000000000000 ) ) ;
#213 = EDGE_CURVE ( 'NONE', #126, #105, #72, .T. ) ;
#214 = CALENDAR_DATE ( 2023, 31, 1 ) ;
#215 = AXIS2_PLACEMENT_3D ( 'NONE', #136, #179, #216 ) ;
#216 = DIRECTION ( 'NONE',  ( 1.000000000000000000, 0.000000000000000000, 0.000000000000000000 ) ) ;
#217 = CARTESIAN_POINT ( 'NONE',  ( -0.5000000000000000000, 0.000000000000000000, 100.0000000000000000 ) ) ;
#218 = DIRECTION ( 'NONE',  ( -1.000000000000000000, 0.000000000000000000, 0.000000000000000000 ) ) ;
#219 = AXIS2_PLACEMENT_3D ( 'NONE', #31, #116, #10 ) ;
#220 = ADVANCED_FACE ( 'NONE', ( #37 ), #82, .T. ) ;
#221 = DIRECTION ( 'NONE',  ( -0.000000000000000000, -0.000000000000000000, -1.000000000000000000 ) ) ;
#222 = FACE_OUTER_BOUND ( 'NONE', #143, .T. ) ;
#223 = CARTESIAN_POINT ( 'NONE',  ( 0.000000000000000000, 0.000000000000000000, 0.000000000000000000 ) ) ;
#224 = VECTOR ( 'NONE', #39, 1000.000000000000000 ) ;
#225 = ORIENTED_EDGE ( 'NONE', *, *, #69, .T. ) ;
#226 = PLANE ( 'NONE',  #203 ) ;
#227 = EDGE_CURVE ( 'NONE', #245, #125, #40, .T. ) ;
#228 = EDGE_CURVE ( 'NONE', #105, #126, #248, .T. ) ;
#229 = DATE_AND_TIME ( #113, #163 ) ;
#230 = CYLINDRICAL_SURFACE ( 'NONE', #123, 1.250000000000000000 ) ;
#231 = SECURITY_CLASSIFICATION ( '', '', #193 ) ;
#232 = FACE_OUTER_BOUND ( 'NONE', #247, .T. ) ;
#233 = EDGE_CURVE ( 'NONE', #129, #28, #253, .T. ) ;
#234 = COORDINATED_UNIVERSAL_TIME_OFFSET ( 1, 0, .AHEAD. ) ;
#235 = CARTESIAN_POINT ( 'NONE',  ( 0.000000000000000000, 0.000000000000000000, 1.199999999999999956 ) ) ;
#236 = DIRECTION ( 'NONE',  ( 0.000000000000000000, 0.000000000000000000, 1.000000000000000000 ) ) ;
#237 = APPROVAL ( #173, 'NEURÈENÝ' ) ;
#238 = CARTESIAN_POINT ( 'NONE',  ( -1.250000000000000000, 0.000000000000000000, 0.000000000000000000 ) ) ;
#239 = DIRECTION ( 'NONE',  ( 0.000000000000000000, 0.000000000000000000, 1.000000000000000000 ) ) ;
#240 = DIRECTION ( 'NONE',  ( -0.000000000000000000, -0.000000000000000000, -1.000000000000000000 ) ) ;
#241 = CC_DESIGN_PERSON_AND_ORGANIZATION_ASSIGNMENT ( #54, #153, ( #167 ) ) ;
#242 = ORIENTED_EDGE ( 'NONE', *, *, #233, .T. ) ;
#243 = AXIS2_PLACEMENT_3D ( 'NONE', #198, #212, #176 ) ;
#244 = CC_DESIGN_APPROVAL ( #114, ( #145 ) ) ;
#245 = VERTEX_POINT ( 'NONE', #97 ) ;
#246 = ORIENTED_EDGE ( 'NONE', *, *, #233, .F. ) ;
#247 = EDGE_LOOP ( 'NONE', ( #242, #142 ) ) ;
#248 = CIRCLE ( 'NONE', #111, 0.5000000000000000000 ) ;
#249 = CC_DESIGN_PERSON_AND_ORGANIZATION_ASSIGNMENT ( #185, #92, ( #160 ) ) ;
#250 = CALENDAR_DATE ( 2023, 31, 1 ) ;
#251 = COORDINATED_UNIVERSAL_TIME_OFFSET ( 1, 0, .AHEAD. ) ;
#252 = PRODUCT_RELATED_PRODUCT_CATEGORY ( 'detail', '', ( #160 ) ) ;
#253 = CIRCLE ( 'NONE', #215, 1.250000000000000000 ) ;
#254 = DIRECTION ( 'NONE',  ( 1.000000000000000000, 0.000000000000000000, 0.000000000000000000 ) ) ;
#255 = CARTESIAN_POINT ( 'NONE',  ( -1.250000000000000000, 0.000000000000000000, 1.199999999999999956 ) ) ;
ENDSEC;
END-ISO-10303-21;
