ISO-10303-21;
HEADER;
FILE_DESCRIPTION (( 'STEP AP203' ),
    '1' );
FILE_NAME ('faa0.STEP',
    '2023-02-13T12:52:23',
    ( '' ),
    ( '' ),
    'SwSTEP 2.0',
    'SolidWorks 2019',
    '' );
FILE_SCHEMA (( 'CONFIG_CONTROL_DESIGN' ));
ENDSEC;

DATA;
#1 = PERSON_AND_ORGANIZATION_ROLE ( 'creator' ) ;
#2 = LINE ( 'NONE', #231, #23 ) ;
#3 = APPROVAL_ROLE ( '' ) ;
#4 = FACE_OUTER_BOUND ( 'NONE', #165, .T. ) ;
#5 = PERSON_AND_ORGANIZATION ( #241, #151 ) ;
#6 = CARTESIAN_POINT ( 'NONE',  ( 0.000000000000000000, 0.000000000000000000, 250.0000000000000000 ) ) ;
#7 = VERTEX_POINT ( 'NONE', #175 ) ;
#8 = SECURITY_CLASSIFICATION ( '', '', #255 ) ;
#9 = PLANE ( 'NONE',  #138 ) ;
#10 = FACE_OUTER_BOUND ( 'NONE', #76, .T. ) ;
#11 = AXIS2_PLACEMENT_3D ( 'NONE', #75, #203, #224 ) ;
#12 = PRODUCT_DEFINITION_FORMATION_WITH_SPECIFIED_SOURCE ( 'LIBOVOLNÝ', '', #100, .NOT_KNOWN. ) ;
#13 = CARTESIAN_POINT ( 'NONE',  ( 0.000000000000000000, 0.000000000000000000, 5.000000000000000000 ) ) ;
#14 = CARTESIAN_POINT ( 'NONE',  ( 7.000000000000000000, 8.572527594031473190E-16, 0.000000000000000000 ) ) ;
#15 = LOCAL_TIME ( 13, 52, 23.00000000000000000, #171 ) ;
#16 = PERSON_AND_ORGANIZATION ( #241, #151 ) ;
#17 = EDGE_CURVE ( 'NONE', #56, #188, #2, .T. ) ;
#18 = CYLINDRICAL_SURFACE ( 'NONE', #148, 4.250000000000000000 ) ;
#19 = PERSON_AND_ORGANIZATION ( #241, #151 ) ;
#20 = CIRCLE ( 'NONE', #173, 4.250000000000000000 ) ;
#21 = EDGE_LOOP ( 'NONE', ( #179, #157, #216, #44 ) ) ;
#22 = DATE_AND_TIME ( #230, #31 ) ;
#23 = VECTOR ( 'NONE', #200, 1000.000000000000000 ) ;
#24 = DIRECTION ( 'NONE',  ( 0.000000000000000000, 0.000000000000000000, 1.000000000000000000 ) ) ;
#25 = CIRCLE ( 'NONE', #197, 4.250000000000000000 ) ;
#26 = CC_DESIGN_PERSON_AND_ORGANIZATION_ASSIGNMENT ( #16, #99, ( #12 ) ) ;
#27 = DIRECTION ( 'NONE',  ( 0.000000000000000000, 0.000000000000000000, 1.000000000000000000 ) ) ;
#28 = CIRCLE ( 'NONE', #121, 7.000000000000000000 ) ;
#29 = CARTESIAN_POINT ( 'NONE',  ( 7.000000000000000000, 8.572527594031473190E-16, 5.000000000000000000 ) ) ;
#30 = ORIENTED_EDGE ( 'NONE', *, *, #17, .T. ) ;
#31 = LOCAL_TIME ( 13, 52, 23.00000000000000000, #198 ) ;
#32 = DIRECTION ( 'NONE',  ( -0.000000000000000000, -0.000000000000000000, -1.000000000000000000 ) ) ;
#33 = DIRECTION ( 'NONE',  ( 1.000000000000000000, 0.000000000000000000, 0.000000000000000000 ) ) ;
#34 = ORIENTED_EDGE ( 'NONE', *, *, #167, .F. ) ;
#35 = APPLICATION_PROTOCOL_DEFINITION ( 'international standard', 'config_control_design', 1994, #164 ) ;
#36 = ADVANCED_FACE ( 'NONE', ( #4 ), #85, .T. ) ;
#37 = COORDINATED_UNIVERSAL_TIME_OFFSET ( 1, 0, .AHEAD. ) ;
#38 = EDGE_LOOP ( 'NONE', ( #115, #149 ) ) ;
#39 = CIRCLE ( 'NONE', #154, 7.000000000000000000 ) ;
#40 = UNCERTAINTY_MEASURE_WITH_UNIT (LENGTH_MEASURE( 1.000000000000000082E-05 ), #74, 'distance_accuracy_value', 'NONE');
#41 = APPROVAL_STATUS ( 'not_yet_approved' ) ;
#42 = CARTESIAN_POINT ( 'NONE',  ( 4.250000000000000000, 5.204748896376250699E-16, 250.0000000000000000 ) ) ;
#43 = APPROVAL_DATE_TIME ( #45, #118 ) ;
#44 = ORIENTED_EDGE ( 'NONE', *, *, #88, .T. ) ;
#45 = DATE_AND_TIME ( #152, #134 ) ;
#46 = CIRCLE ( 'NONE', #218, 4.250000000000000000 ) ;
#47 = EDGE_CURVE ( 'NONE', #170, #7, #246, .T. ) ;
#48 = APPROVAL_PERSON_ORGANIZATION ( #153, #118, #66 ) ;
#49 = CARTESIAN_POINT ( 'NONE',  ( 0.000000000000000000, 0.000000000000000000, 0.000000000000000000 ) ) ;
#50 = CARTESIAN_POINT ( 'NONE',  ( 0.000000000000000000, 0.000000000000000000, 250.0000000000000000 ) ) ;
#51 = LINE ( 'NONE', #29, #172 ) ;
#52 = EDGE_CURVE ( 'NONE', #7, #105, #193, .T. ) ;
#53 =( NAMED_UNIT ( * ) SI_UNIT ( $, .STERADIAN. ) SOLID_ANGLE_UNIT ( ) );
#54 = DIRECTION ( 'NONE',  ( -1.000000000000000000, 0.000000000000000000, 0.000000000000000000 ) ) ;
#55 = ORIENTED_EDGE ( 'NONE', *, *, #205, .T. ) ;
#56 = VERTEX_POINT ( 'NONE', #42 ) ;
#57 = DIRECTION ( 'NONE',  ( 0.000000000000000000, 0.000000000000000000, 1.000000000000000000 ) ) ;
#58 = VERTEX_POINT ( 'NONE', #65 ) ;
#59 = APPROVAL_ROLE ( '' ) ;
#60 = CARTESIAN_POINT ( 'NONE',  ( 0.000000000000000000, 0.000000000000000000, 250.0000000000000000 ) ) ;
#61 = PERSON_AND_ORGANIZATION_ROLE ( 'design_owner' ) ;
#62 = EDGE_LOOP ( 'NONE', ( #55, #168 ) ) ;
#63 = DESIGN_CONTEXT ( 'detailed design', #164, 'design' ) ;
#64 = COORDINATED_UNIVERSAL_TIME_OFFSET ( 1, 0, .AHEAD. ) ;
#65 = CARTESIAN_POINT ( 'NONE',  ( -4.250000000000000000, 0.000000000000000000, 250.0000000000000000 ) ) ;
#66 = APPROVAL_ROLE ( '' ) ;
#67 = MANIFOLD_SOLID_BREP ( 'Pøidat vysunutím3', #252 ) ;
#68 = PLANE ( 'NONE',  #95 ) ;
#69 = AXIS2_PLACEMENT_3D ( 'NONE', #78, #32, #54 ) ;
#70 = PRODUCT_RELATED_PRODUCT_CATEGORY ( 'detail', '', ( #100 ) ) ;
#71 = FACE_OUTER_BOUND ( 'NONE', #21, .T. ) ;
#72 = FACE_BOUND ( 'NONE', #38, .T. ) ;
#73 = CARTESIAN_POINT ( 'NONE',  ( 0.000000000000000000, 0.000000000000000000, 0.000000000000000000 ) ) ;
#74 =( LENGTH_UNIT ( ) NAMED_UNIT ( * ) SI_UNIT ( .MILLI., .METRE. ) );
#75 = CARTESIAN_POINT ( 'NONE',  ( 0.000000000000000000, 0.000000000000000000, 5.000000000000000000 ) ) ;
#76 = EDGE_LOOP ( 'NONE', ( #136, #194, #250, #132 ) ) ;
#77 = DIRECTION ( 'NONE',  ( -0.000000000000000000, -0.000000000000000000, -1.000000000000000000 ) ) ;
#78 = CARTESIAN_POINT ( 'NONE',  ( 0.000000000000000000, 0.000000000000000000, 5.000000000000000000 ) ) ;
#79 = CC_DESIGN_DATE_AND_TIME_ASSIGNMENT ( #22, #104, ( #8 ) ) ;
#80 = PERSON_AND_ORGANIZATION ( #241, #151 ) ;
#81 = VECTOR ( 'NONE', #186, 1000.000000000000000 ) ;
#82 = DIRECTION ( 'NONE',  ( 1.000000000000000000, 0.000000000000000000, 0.000000000000000000 ) ) ;
#83 = ADVANCED_FACE ( 'NONE', ( #199 ), #18, .T. ) ;
#84 = PERSON_AND_ORGANIZATION ( #241, #151 ) ;
#85 = PLANE ( 'NONE',  #201 ) ;
#86 = APPROVAL_STATUS ( 'not_yet_approved' ) ;
#87 = DIRECTION ( 'NONE',  ( -0.000000000000000000, -0.000000000000000000, -1.000000000000000000 ) ) ;
#88 = EDGE_CURVE ( 'NONE', #190, #188, #46, .T. ) ;
#89 = APPROVAL_PERSON_ORGANIZATION ( #5, #191, #59 ) ;
#90 = ADVANCED_FACE ( 'NONE', ( #72, #106 ), #9, .T. ) ;
#91 = DIRECTION ( 'NONE',  ( 0.000000000000000000, 0.000000000000000000, 1.000000000000000000 ) ) ;
#92 = VECTOR ( 'NONE', #214, 1000.000000000000000 ) ;
#93 = LINE ( 'NONE', #163, #81 ) ;
#94 = DIRECTION ( 'NONE',  ( 0.000000000000000000, 0.000000000000000000, 1.000000000000000000 ) ) ;
#95 = AXIS2_PLACEMENT_3D ( 'NONE', #49, #91, #120 ) ;
#96 = CARTESIAN_POINT ( 'NONE',  ( 0.000000000000000000, 0.000000000000000000, 0.000000000000000000 ) ) ;
#97 = APPLICATION_PROTOCOL_DEFINITION ( 'international standard', 'config_control_design', 1994, #247 ) ;
#98 = CC_DESIGN_APPROVAL ( #118, ( #12 ) ) ;
#99 = PERSON_AND_ORGANIZATION_ROLE ( 'creator' ) ;
#100 = PRODUCT ( 'faa0', 'faa0', '', ( #235 ) ) ;
#101 = COORDINATED_UNIVERSAL_TIME_OFFSET ( 1, 0, .AHEAD. ) ;
#102 = DIRECTION ( 'NONE',  ( -1.000000000000000000, 0.000000000000000000, 0.000000000000000000 ) ) ;
#103 = EDGE_LOOP ( 'NONE', ( #34, #212, #253, #208 ) ) ;
#104 = DATE_TIME_ROLE ( 'classification_date' ) ;
#105 = VERTEX_POINT ( 'NONE', #159 ) ;
#106 = FACE_OUTER_BOUND ( 'NONE', #62, .T. ) ;
#107 = CARTESIAN_POINT ( 'NONE',  ( 0.000000000000000000, 0.000000000000000000, 5.000000000000000000 ) ) ;
#108 = DIRECTION ( 'NONE',  ( 0.000000000000000000, 0.000000000000000000, 1.000000000000000000 ) ) ;
#109 = APPROVAL ( #174, 'NEURÈENÝ' ) ;
#110 = FACE_OUTER_BOUND ( 'NONE', #103, .T. ) ;
#111 = CARTESIAN_POINT ( 'NONE',  ( -4.250000000000000000, 0.000000000000000000, 5.000000000000000000 ) ) ;
#112 = LOCAL_TIME ( 13, 52, 23.00000000000000000, #101 ) ;
#113 = CARTESIAN_POINT ( 'NONE',  ( 0.000000000000000000, 0.000000000000000000, 5.000000000000000000 ) ) ;
#114 = ORIENTED_EDGE ( 'NONE', *, *, #185, .T. ) ;
#115 = ORIENTED_EDGE ( 'NONE', *, *, #88, .F. ) ;
#116 = PERSON_AND_ORGANIZATION ( #241, #151 ) ;
#117 = DIRECTION ( 'NONE',  ( 0.000000000000000000, 0.000000000000000000, 1.000000000000000000 ) ) ;
#118 = APPROVAL ( #41, 'NEURÈENÝ' ) ;
#119 = EDGE_CURVE ( 'NONE', #196, #105, #28, .T. ) ;
#120 = DIRECTION ( 'NONE',  ( 1.000000000000000000, 0.000000000000000000, -0.000000000000000000 ) ) ;
#121 = AXIS2_PLACEMENT_3D ( 'NONE', #161, #142, #243 ) ;
#122 = SHAPE_DEFINITION_REPRESENTATION ( #217, #237 ) ;
#123 = AXIS2_PLACEMENT_3D ( 'NONE', #13, #94, #146 ) ;
#124 = ORIENTED_EDGE ( 'NONE', *, *, #139, .F. ) ;
#125 = ADVANCED_FACE ( 'NONE', ( #71 ), #140, .T. ) ;
#126 = DIRECTION ( 'NONE',  ( 1.000000000000000000, 0.000000000000000000, 0.000000000000000000 ) ) ;
#127 = ORIENTED_EDGE ( 'NONE', *, *, #236, .F. ) ;
#128 = APPROVAL_PERSON_ORGANIZATION ( #211, #109, #3 ) ;
#129 = CC_DESIGN_PERSON_AND_ORGANIZATION_ASSIGNMENT ( #19, #61, ( #100 ) ) ;
#130 =( NAMED_UNIT ( * ) PLANE_ANGLE_UNIT ( ) SI_UNIT ( $, .RADIAN. ) );
#131 = ORIENTED_EDGE ( 'NONE', *, *, #234, .F. ) ;
#132 = ORIENTED_EDGE ( 'NONE', *, *, #52, .F. ) ;
#133 = ADVANCED_FACE ( 'NONE', ( #219 ), #68, .F. ) ;
#134 = LOCAL_TIME ( 13, 52, 23.00000000000000000, #64 ) ;
#135 = CALENDAR_DATE ( 2023, 13, 2 ) ;
#136 = ORIENTED_EDGE ( 'NONE', *, *, #47, .F. ) ;
#137 = EDGE_LOOP ( 'NONE', ( #124, #184 ) ) ;
#138 = AXIS2_PLACEMENT_3D ( 'NONE', #107, #108, #220 ) ;
#139 = EDGE_CURVE ( 'NONE', #105, #196, #39, .T. ) ;
#140 = CYLINDRICAL_SURFACE ( 'NONE', #204, 4.250000000000000000 ) ;
#141 = CC_DESIGN_DATE_AND_TIME_ASSIGNMENT ( #195, #232, ( #244 ) ) ;
#142 = DIRECTION ( 'NONE',  ( 0.000000000000000000, 0.000000000000000000, 1.000000000000000000 ) ) ;
#143 = DIRECTION ( 'NONE',  ( 1.000000000000000000, 0.000000000000000000, 0.000000000000000000 ) ) ;
#144 = DIRECTION ( 'NONE',  ( 0.000000000000000000, 0.000000000000000000, 1.000000000000000000 ) ) ;
#145 = CC_DESIGN_PERSON_AND_ORGANIZATION_ASSIGNMENT ( #84, #1, ( #244 ) ) ;
#146 = DIRECTION ( 'NONE',  ( 1.000000000000000000, 0.000000000000000000, 0.000000000000000000 ) ) ;
#147 = DIRECTION ( 'NONE',  ( 0.000000000000000000, 0.000000000000000000, 1.000000000000000000 ) ) ;
#148 = AXIS2_PLACEMENT_3D ( 'NONE', #6, #87, #102 ) ;
#149 = ORIENTED_EDGE ( 'NONE', *, *, #240, .F. ) ;
#150 = CARTESIAN_POINT ( 'NONE',  ( 0.000000000000000000, 0.000000000000000000, 5.000000000000000000 ) ) ;
#151 = ORGANIZATION ( 'NEURÈENÝ', 'NEURÈENÝ', '' ) ;
#152 = CALENDAR_DATE ( 2023, 13, 2 ) ;
#153 = PERSON_AND_ORGANIZATION ( #241, #151 ) ;
#154 = AXIS2_PLACEMENT_3D ( 'NONE', #73, #245, #143 ) ;
#155 = CARTESIAN_POINT ( 'NONE',  ( -7.000000000000000000, 0.000000000000000000, 5.000000000000000000 ) ) ;
#156 = CC_DESIGN_PERSON_AND_ORGANIZATION_ASSIGNMENT ( #116, #209, ( #12 ) ) ;
#157 = ORIENTED_EDGE ( 'NONE', *, *, #185, .F. ) ;
#158 = CC_DESIGN_SECURITY_CLASSIFICATION ( #8, ( #12 ) ) ;
#159 = CARTESIAN_POINT ( 'NONE',  ( -7.000000000000000000, 0.000000000000000000, 0.000000000000000000 ) ) ;
#160 = CC_DESIGN_APPROVAL ( #191, ( #8 ) ) ;
#161 = CARTESIAN_POINT ( 'NONE',  ( 0.000000000000000000, 0.000000000000000000, 0.000000000000000000 ) ) ;
#162 = AXIS2_PLACEMENT_3D ( 'NONE', #113, #117, #82 ) ;
#163 = CARTESIAN_POINT ( 'NONE',  ( -4.250000000000000000, 0.000000000000000000, 250.0000000000000000 ) ) ;
#164 = APPLICATION_CONTEXT ( 'configuration controlled 3d designs of mechanical parts and assemblies' ) ;
#165 = EDGE_LOOP ( 'NONE', ( #114, #180 ) ) ;
#166 = CYLINDRICAL_SURFACE ( 'NONE', #69, 7.000000000000000000 ) ;
#167 = EDGE_CURVE ( 'NONE', #170, #196, #51, .T. ) ;
#168 = ORIENTED_EDGE ( 'NONE', *, *, #47, .T. ) ;
#169 = CARTESIAN_POINT ( 'NONE',  ( 0.000000000000000000, 0.000000000000000000, 250.0000000000000000 ) ) ;
#170 = VERTEX_POINT ( 'NONE', #249 ) ;
#171 = COORDINATED_UNIVERSAL_TIME_OFFSET ( 1, 0, .AHEAD. ) ;
#172 = VECTOR ( 'NONE', #77, 1000.000000000000000 ) ;
#173 = AXIS2_PLACEMENT_3D ( 'NONE', #169, #27, #126 ) ;
#174 = APPROVAL_STATUS ( 'not_yet_approved' ) ;
#175 = CARTESIAN_POINT ( 'NONE',  ( -7.000000000000000000, 0.000000000000000000, 5.000000000000000000 ) ) ;
#176 = LOCAL_TIME ( 13, 52, 23.00000000000000000, #37 ) ;
#177 = ADVANCED_FACE ( 'NONE', ( #10 ), #251, .T. ) ;
#178 = PERSON_AND_ORGANIZATION_ROLE ( 'classification_officer' ) ;
#179 = ORIENTED_EDGE ( 'NONE', *, *, #17, .F. ) ;
#180 = ORIENTED_EDGE ( 'NONE', *, *, #236, .T. ) ;
#181 = ADVANCED_FACE ( 'NONE', ( #110 ), #166, .T. ) ;
#182 = DIRECTION ( 'NONE',  ( -0.000000000000000000, -0.000000000000000000, -1.000000000000000000 ) ) ;
#183 = DIRECTION ( 'NONE',  ( -1.000000000000000000, 0.000000000000000000, 0.000000000000000000 ) ) ;
#184 = ORIENTED_EDGE ( 'NONE', *, *, #119, .F. ) ;
#185 = EDGE_CURVE ( 'NONE', #58, #56, #20, .T. ) ;
#186 = DIRECTION ( 'NONE',  ( -0.000000000000000000, -0.000000000000000000, -1.000000000000000000 ) ) ;
#187 = DIRECTION ( 'NONE',  ( 1.000000000000000000, 0.000000000000000000, 0.000000000000000000 ) ) ;
#188 = VERTEX_POINT ( 'NONE', #254 ) ;
#189 = CALENDAR_DATE ( 2023, 13, 2 ) ;
#190 = VERTEX_POINT ( 'NONE', #111 ) ;
#191 = APPROVAL ( #86, 'NEURÈENÝ' ) ;
#192 = CALENDAR_DATE ( 2023, 13, 2 ) ;
#193 = LINE ( 'NONE', #155, #92 ) ;
#194 = ORIENTED_EDGE ( 'NONE', *, *, #167, .T. ) ;
#195 = DATE_AND_TIME ( #189, #176 ) ;
#196 = VERTEX_POINT ( 'NONE', #14 ) ;
#197 = AXIS2_PLACEMENT_3D ( 'NONE', #227, #144, #187 ) ;
#198 = COORDINATED_UNIVERSAL_TIME_OFFSET ( 1, 0, .AHEAD. ) ;
#199 = FACE_OUTER_BOUND ( 'NONE', #223, .T. ) ;
#200 = DIRECTION ( 'NONE',  ( -0.000000000000000000, -0.000000000000000000, -1.000000000000000000 ) ) ;
#201 = AXIS2_PLACEMENT_3D ( 'NONE', #60, #24, #210 ) ;
#202 = CC_DESIGN_APPROVAL ( #109, ( #244 ) ) ;
#203 = DIRECTION ( 'NONE',  ( -0.000000000000000000, -0.000000000000000000, -1.000000000000000000 ) ) ;
#204 = AXIS2_PLACEMENT_3D ( 'NONE', #50, #182, #183 ) ;
#205 = EDGE_CURVE ( 'NONE', #7, #170, #206, .T. ) ;
#206 = CIRCLE ( 'NONE', #226, 7.000000000000000000 ) ;
#207 = CARTESIAN_POINT ( 'NONE',  ( 0.000000000000000000, 0.000000000000000000, 5.000000000000000000 ) ) ;
#208 = ORIENTED_EDGE ( 'NONE', *, *, #139, .T. ) ;
#209 = PERSON_AND_ORGANIZATION_ROLE ( 'design_supplier' ) ;
#210 = DIRECTION ( 'NONE',  ( 1.000000000000000000, 0.000000000000000000, -0.000000000000000000 ) ) ;
#211 = PERSON_AND_ORGANIZATION ( #241, #151 ) ;
#212 = ORIENTED_EDGE ( 'NONE', *, *, #205, .F. ) ;
#213 = APPROVAL_DATE_TIME ( #215, #109 ) ;
#214 = DIRECTION ( 'NONE',  ( -0.000000000000000000, -0.000000000000000000, -1.000000000000000000 ) ) ;
#215 = DATE_AND_TIME ( #135, #15 ) ;
#216 = ORIENTED_EDGE ( 'NONE', *, *, #234, .T. ) ;
#217 = PRODUCT_DEFINITION_SHAPE ( 'NONE', 'NONE',  #244 ) ;
#218 = AXIS2_PLACEMENT_3D ( 'NONE', #150, #233, #221 ) ;
#219 = FACE_OUTER_BOUND ( 'NONE', #137, .T. ) ;
#220 = DIRECTION ( 'NONE',  ( 1.000000000000000000, 0.000000000000000000, -0.000000000000000000 ) ) ;
#221 = DIRECTION ( 'NONE',  ( 1.000000000000000000, 0.000000000000000000, 0.000000000000000000 ) ) ;
#222 =( GEOMETRIC_REPRESENTATION_CONTEXT ( 3 ) GLOBAL_UNCERTAINTY_ASSIGNED_CONTEXT ( ( #40 ) ) GLOBAL_UNIT_ASSIGNED_CONTEXT ( ( #74, #130, #53 ) ) REPRESENTATION_CONTEXT ( 'NONE', 'WORKASPACE' ) );
#223 = EDGE_LOOP ( 'NONE', ( #127, #30, #228, #131 ) ) ;
#224 = DIRECTION ( 'NONE',  ( -1.000000000000000000, 0.000000000000000000, 0.000000000000000000 ) ) ;
#225 = CC_DESIGN_PERSON_AND_ORGANIZATION_ASSIGNMENT ( #80, #178, ( #8 ) ) ;
#226 = AXIS2_PLACEMENT_3D ( 'NONE', #207, #57, #33 ) ;
#227 = CARTESIAN_POINT ( 'NONE',  ( 0.000000000000000000, 0.000000000000000000, 250.0000000000000000 ) ) ;
#228 = ORIENTED_EDGE ( 'NONE', *, *, #240, .T. ) ;
#229 = DIRECTION ( 'NONE',  ( 1.000000000000000000, 0.000000000000000000, 0.000000000000000000 ) ) ;
#230 = CALENDAR_DATE ( 2023, 13, 2 ) ;
#231 = CARTESIAN_POINT ( 'NONE',  ( 4.250000000000000000, 5.204748896376250699E-16, 250.0000000000000000 ) ) ;
#232 = DATE_TIME_ROLE ( 'creation_date' ) ;
#233 = DIRECTION ( 'NONE',  ( 0.000000000000000000, 0.000000000000000000, 1.000000000000000000 ) ) ;
#234 = EDGE_CURVE ( 'NONE', #58, #190, #93, .T. ) ;
#235 = MECHANICAL_CONTEXT ( 'NONE', #247, 'mechanical' ) ;
#236 = EDGE_CURVE ( 'NONE', #56, #58, #25, .T. ) ;
#237 = ADVANCED_BREP_SHAPE_REPRESENTATION ( 'faa0', ( #67, #248 ), #222 ) ;
#238 = CIRCLE ( 'NONE', #123, 4.250000000000000000 ) ;
#239 = APPROVAL_DATE_TIME ( #242, #191 ) ;
#240 = EDGE_CURVE ( 'NONE', #188, #190, #238, .T. ) ;
#241 = PERSON ( 'NEURÈENÝ', 'NEURÈENÝ', 'NEURÈENÝ', ('NEURÈENÝ'), ('NEURÈENÝ'), ('NEURÈENÝ') ) ;
#242 = DATE_AND_TIME ( #192, #112 ) ;
#243 = DIRECTION ( 'NONE',  ( 1.000000000000000000, 0.000000000000000000, 0.000000000000000000 ) ) ;
#244 = PRODUCT_DEFINITION ( 'NEZNÁMÝ', '', #12, #63 ) ;
#245 = DIRECTION ( 'NONE',  ( 0.000000000000000000, 0.000000000000000000, 1.000000000000000000 ) ) ;
#246 = CIRCLE ( 'NONE', #162, 7.000000000000000000 ) ;
#247 = APPLICATION_CONTEXT ( 'configuration controlled 3d designs of mechanical parts and assemblies' ) ;
#248 = AXIS2_PLACEMENT_3D ( 'NONE', #96, #147, #229 ) ;
#249 = CARTESIAN_POINT ( 'NONE',  ( 7.000000000000000000, 8.572527594031473190E-16, 5.000000000000000000 ) ) ;
#250 = ORIENTED_EDGE ( 'NONE', *, *, #119, .T. ) ;
#251 = CYLINDRICAL_SURFACE ( 'NONE', #11, 7.000000000000000000 ) ;
#252 = CLOSED_SHELL ( 'NONE', ( #83, #177, #181, #90, #133, #125, #36 ) ) ;
#253 = ORIENTED_EDGE ( 'NONE', *, *, #52, .T. ) ;
#254 = CARTESIAN_POINT ( 'NONE',  ( 4.250000000000000000, 5.204748896376250699E-16, 5.000000000000000000 ) ) ;
#255 = SECURITY_CLASSIFICATION_LEVEL ( 'unclassified' ) ;
ENDSEC;
END-ISO-10303-21;
