ISO-10303-21;
HEADER;
FILE_DESCRIPTION (( 'STEP AP203' ),
    '1' );
FILE_NAME ('c754.STEP',
    '2023-02-13T11:14:06',
    ( '' ),
    ( '' ),
    'SwSTEP 2.0',
    'SolidWorks 2019',
    '' );
FILE_SCHEMA (( 'CONFIG_CONTROL_DESIGN' ));
ENDSEC;

DATA;
#1 = CARTESIAN_POINT ( 'NONE',  ( 8.000000000000000000, 9.797174393178825657E-16, 5.000000000000000000 ) ) ;
#2 = DATE_AND_TIME ( #162, #194 ) ;
#3 = VERTEX_POINT ( 'NONE', #48 ) ;
#4 = SECURITY_CLASSIFICATION_LEVEL ( 'unclassified' ) ;
#5 = ORIENTED_EDGE ( 'NONE', *, *, #99, .T. ) ;
#6 = DATE_AND_TIME ( #138, #209 ) ;
#7 = VERTEX_POINT ( 'NONE', #142 ) ;
#8 = AXIS2_PLACEMENT_3D ( 'NONE', #212, #57, #154 ) ;
#9 = EDGE_LOOP ( 'NONE', ( #164, #67 ) ) ;
#10 = DATE_AND_TIME ( #141, #224 ) ;
#11 = ORIENTED_EDGE ( 'NONE', *, *, #207, .T. ) ;
#12 = DIRECTION ( 'NONE',  ( 0.000000000000000000, 0.000000000000000000, 1.000000000000000000 ) ) ;
#13 = AXIS2_PLACEMENT_3D ( 'NONE', #254, #191, #41 ) ;
#14 = ADVANCED_BREP_SHAPE_REPRESENTATION ( 'c754', ( #208, #44 ), #68 ) ;
#15 = CIRCLE ( 'NONE', #245, 8.000000000000000000 ) ;
#16 = DIRECTION ( 'NONE',  ( 0.000000000000000000, 0.000000000000000000, 1.000000000000000000 ) ) ;
#17 = CC_DESIGN_PERSON_AND_ORGANIZATION_ASSIGNMENT ( #100, #43, ( #170 ) ) ;
#18 = LINE ( 'NONE', #69, #172 ) ;
#19 = CARTESIAN_POINT ( 'NONE',  ( 0.000000000000000000, 0.000000000000000000, 5.000000000000000000 ) ) ;
#20 = DIRECTION ( 'NONE',  ( -0.000000000000000000, -0.000000000000000000, -1.000000000000000000 ) ) ;
#21 = DIRECTION ( 'NONE',  ( 0.000000000000000000, 0.000000000000000000, 1.000000000000000000 ) ) ;
#22 = PLANE ( 'NONE',  #60 ) ;
#23 = CARTESIAN_POINT ( 'NONE',  ( 0.000000000000000000, 0.000000000000000000, 200.0000000000000000 ) ) ;
#24 = ADVANCED_FACE ( 'NONE', ( #125 ), #61, .F. ) ;
#25 = PERSON_AND_ORGANIZATION ( #159, #229 ) ;
#26 = APPROVAL_PERSON_ORGANIZATION ( #226, #190, #102 ) ;
#27 = CALENDAR_DATE ( 2023, 13, 2 ) ;
#28 = ORIENTED_EDGE ( 'NONE', *, *, #211, .T. ) ;
#29 = DIRECTION ( 'NONE',  ( 1.000000000000000000, 0.000000000000000000, 0.000000000000000000 ) ) ;
#30 = EDGE_LOOP ( 'NONE', ( #181, #54, #5, #195 ) ) ;
#31 = APPROVAL_DATE_TIME ( #6, #190 ) ;
#32 = CALENDAR_DATE ( 2023, 13, 2 ) ;
#33 = DIRECTION ( 'NONE',  ( -0.000000000000000000, -0.000000000000000000, -1.000000000000000000 ) ) ;
#34 = DIRECTION ( 'NONE',  ( 0.000000000000000000, 0.000000000000000000, 1.000000000000000000 ) ) ;
#35 = AXIS2_PLACEMENT_3D ( 'NONE', #23, #129, #150 ) ;
#36 = DIRECTION ( 'NONE',  ( 1.000000000000000000, 0.000000000000000000, 0.000000000000000000 ) ) ;
#37 = CC_DESIGN_SECURITY_CLASSIFICATION ( #166, ( #170 ) ) ;
#38 = PLANE ( 'NONE',  #80 ) ;
#39 = APPLICATION_CONTEXT ( 'configuration controlled 3d designs of mechanical parts and assemblies' ) ;
#40 = DIRECTION ( 'NONE',  ( -0.000000000000000000, -0.000000000000000000, -1.000000000000000000 ) ) ;
#41 = DIRECTION ( 'NONE',  ( 1.000000000000000000, 0.000000000000000000, 0.000000000000000000 ) ) ;
#42 =( NAMED_UNIT ( * ) PLANE_ANGLE_UNIT ( ) SI_UNIT ( $, .RADIAN. ) );
#43 = PERSON_AND_ORGANIZATION_ROLE ( 'design_supplier' ) ;
#44 = AXIS2_PLACEMENT_3D ( 'NONE', #175, #200, #29 ) ;
#45 = PERSON_AND_ORGANIZATION ( #159, #229 ) ;
#46 = APPROVAL_DATE_TIME ( #10, #90 ) ;
#47 = APPROVAL_DATE_TIME ( #105, #187 ) ;
#48 = CARTESIAN_POINT ( 'NONE',  ( 5.100000000000001421, 6.245698675651502811E-16, 5.000000000000000000 ) ) ;
#49 = VERTEX_POINT ( 'NONE', #180 ) ;
#50 = CARTESIAN_POINT ( 'NONE',  ( 0.000000000000000000, 0.000000000000000000, 5.000000000000000000 ) ) ;
#51 = CYLINDRICAL_SURFACE ( 'NONE', #65, 8.000000000000000000 ) ;
#52 = EDGE_CURVE ( 'NONE', #131, #49, #255, .T. ) ;
#53 =( LENGTH_UNIT ( ) NAMED_UNIT ( * ) SI_UNIT ( .MILLI., .METRE. ) );
#54 = ORIENTED_EDGE ( 'NONE', *, *, #232, .F. ) ;
#55 = LINE ( 'NONE', #169, #213 ) ;
#56 = CC_DESIGN_PERSON_AND_ORGANIZATION_ASSIGNMENT ( #118, #158, ( #106 ) ) ;
#57 = DIRECTION ( 'NONE',  ( 0.000000000000000000, 0.000000000000000000, 1.000000000000000000 ) ) ;
#58 = APPROVAL_STATUS ( 'not_yet_approved' ) ;
#59 = DATE_AND_TIME ( #32, #252 ) ;
#60 = AXIS2_PLACEMENT_3D ( 'NONE', #77, #115, #253 ) ;
#61 = PLANE ( 'NONE',  #71 ) ;
#62 = APPROVAL_PERSON_ORGANIZATION ( #25, #187, #135 ) ;
#63 = ORIENTED_EDGE ( 'NONE', *, *, #232, .T. ) ;
#64 = DIRECTION ( 'NONE',  ( 0.000000000000000000, 0.000000000000000000, 1.000000000000000000 ) ) ;
#65 = AXIS2_PLACEMENT_3D ( 'NONE', #19, #186, #109 ) ;
#66 = ADVANCED_FACE ( 'NONE', ( #98 ), #136, .T. ) ;
#67 = ORIENTED_EDGE ( 'NONE', *, *, #202, .F. ) ;
#68 =( GEOMETRIC_REPRESENTATION_CONTEXT ( 3 ) GLOBAL_UNCERTAINTY_ASSIGNED_CONTEXT ( ( #139 ) ) GLOBAL_UNIT_ASSIGNED_CONTEXT ( ( #53, #42, #85 ) ) REPRESENTATION_CONTEXT ( 'NONE', 'WORKASPACE' ) );
#69 = CARTESIAN_POINT ( 'NONE',  ( -5.100000000000001421, 0.000000000000000000, 200.0000000000000000 ) ) ;
#70 = FACE_OUTER_BOUND ( 'NONE', #161, .T. ) ;
#71 = AXIS2_PLACEMENT_3D ( 'NONE', #240, #64, #228 ) ;
#72 = DIRECTION ( 'NONE',  ( -0.000000000000000000, -0.000000000000000000, -1.000000000000000000 ) ) ;
#73 = DIRECTION ( 'NONE',  ( 0.000000000000000000, 0.000000000000000000, 1.000000000000000000 ) ) ;
#74 = VECTOR ( 'NONE', #127, 1000.000000000000000 ) ;
#75 = ADVANCED_FACE ( 'NONE', ( #247 ), #51, .T. ) ;
#76 = VERTEX_POINT ( 'NONE', #246 ) ;
#77 = CARTESIAN_POINT ( 'NONE',  ( 0.000000000000000000, 0.000000000000000000, 200.0000000000000000 ) ) ;
#78 = APPLICATION_PROTOCOL_DEFINITION ( 'international standard', 'config_control_design', 1994, #215 ) ;
#79 = DATE_TIME_ROLE ( 'classification_date' ) ;
#80 = AXIS2_PLACEMENT_3D ( 'NONE', #89, #34, #145 ) ;
#81 = VERTEX_POINT ( 'NONE', #204 ) ;
#82 = ORIENTED_EDGE ( 'NONE', *, *, #149, .F. ) ;
#83 = PERSON_AND_ORGANIZATION_ROLE ( 'classification_officer' ) ;
#84 = ORIENTED_EDGE ( 'NONE', *, *, #99, .F. ) ;
#85 =( NAMED_UNIT ( * ) SI_UNIT ( $, .STERADIAN. ) SOLID_ANGLE_UNIT ( ) );
#86 = SHAPE_DEFINITION_REPRESENTATION ( #122, #14 ) ;
#87 = DIRECTION ( 'NONE',  ( 1.000000000000000000, 0.000000000000000000, 0.000000000000000000 ) ) ;
#88 = AXIS2_PLACEMENT_3D ( 'NONE', #183, #16, #231 ) ;
#89 = CARTESIAN_POINT ( 'NONE',  ( 0.000000000000000000, 0.000000000000000000, 5.000000000000000000 ) ) ;
#90 = APPROVAL ( #58, 'NEURÈENÝ' ) ;
#91 = CARTESIAN_POINT ( 'NONE',  ( 0.000000000000000000, 0.000000000000000000, 200.0000000000000000 ) ) ;
#92 = CARTESIAN_POINT ( 'NONE',  ( 0.000000000000000000, 0.000000000000000000, 5.000000000000000000 ) ) ;
#93 = LOCAL_TIME ( 12, 14, 6.000000000000000000, #225 ) ;
#94 = ADVANCED_FACE ( 'NONE', ( #210, #70 ), #38, .T. ) ;
#95 = CARTESIAN_POINT ( 'NONE',  ( 5.100000000000001421, 6.245698675651502811E-16, 200.0000000000000000 ) ) ;
#96 = CIRCLE ( 'NONE', #243, 8.000000000000000000 ) ;
#97 = MECHANICAL_CONTEXT ( 'NONE', #215, 'mechanical' ) ;
#98 = FACE_OUTER_BOUND ( 'NONE', #30, .T. ) ;
#99 = EDGE_CURVE ( 'NONE', #49, #197, #18, .T. ) ;
#100 = PERSON_AND_ORGANIZATION ( #159, #229 ) ;
#101 = EDGE_LOOP ( 'NONE', ( #82, #174 ) ) ;
#102 = APPROVAL_ROLE ( '' ) ;
#103 = EDGE_LOOP ( 'NONE', ( #63, #119 ) ) ;
#104 = CC_DESIGN_PERSON_AND_ORGANIZATION_ASSIGNMENT ( #45, #179, ( #170 ) ) ;
#105 = DATE_AND_TIME ( #27, #93 ) ;
#106 = PRODUCT ( 'c754', 'c754', '', ( #97 ) ) ;
#107 = APPROVAL_STATUS ( 'not_yet_approved' ) ;
#108 = DIRECTION ( 'NONE',  ( -1.000000000000000000, 0.000000000000000000, 0.000000000000000000 ) ) ;
#109 = DIRECTION ( 'NONE',  ( -1.000000000000000000, 0.000000000000000000, 0.000000000000000000 ) ) ;
#110 = CC_DESIGN_PERSON_AND_ORGANIZATION_ASSIGNMENT ( #120, #83, ( #166 ) ) ;
#111 = CARTESIAN_POINT ( 'NONE',  ( 5.100000000000001421, 6.245698675651502811E-16, 200.0000000000000000 ) ) ;
#112 = CC_DESIGN_APPROVAL ( #90, ( #166 ) ) ;
#113 = CYLINDRICAL_SURFACE ( 'NONE', #237, 8.000000000000000000 ) ;
#114 = CARTESIAN_POINT ( 'NONE',  ( 0.000000000000000000, 0.000000000000000000, 0.000000000000000000 ) ) ;
#115 = DIRECTION ( 'NONE',  ( 0.000000000000000000, 0.000000000000000000, 1.000000000000000000 ) ) ;
#116 = LINE ( 'NONE', #1, #74 ) ;
#117 = CIRCLE ( 'NONE', #13, 8.000000000000000000 ) ;
#118 = PERSON_AND_ORGANIZATION ( #159, #229 ) ;
#119 = ORIENTED_EDGE ( 'NONE', *, *, #52, .T. ) ;
#120 = PERSON_AND_ORGANIZATION ( #159, #229 ) ;
#121 = EDGE_CURVE ( 'NONE', #81, #76, #96, .T. ) ;
#122 = PRODUCT_DEFINITION_SHAPE ( 'NONE', 'NONE',  #241 ) ;
#123 = ORIENTED_EDGE ( 'NONE', *, *, #207, .F. ) ;
#124 = PERSON_AND_ORGANIZATION ( #159, #229 ) ;
#125 = FACE_OUTER_BOUND ( 'NONE', #9, .T. ) ;
#126 = CIRCLE ( 'NONE', #88, 5.100000000000001421 ) ;
#127 = DIRECTION ( 'NONE',  ( -0.000000000000000000, -0.000000000000000000, -1.000000000000000000 ) ) ;
#128 = CIRCLE ( 'NONE', #8, 5.100000000000001421 ) ;
#129 = DIRECTION ( 'NONE',  ( -0.000000000000000000, -0.000000000000000000, -1.000000000000000000 ) ) ;
#130 = CC_DESIGN_DATE_AND_TIME_ASSIGNMENT ( #2, #79, ( #166 ) ) ;
#131 = VERTEX_POINT ( 'NONE', #111 ) ;
#132 = DIRECTION ( 'NONE',  ( -1.000000000000000000, 0.000000000000000000, 0.000000000000000000 ) ) ;
#133 = CYLINDRICAL_SURFACE ( 'NONE', #35, 5.100000000000001421 ) ;
#134 = EDGE_LOOP ( 'NONE', ( #123, #157, #137, #144 ) ) ;
#135 = APPROVAL_ROLE ( '' ) ;
#136 = CYLINDRICAL_SURFACE ( 'NONE', #188, 5.100000000000001421 ) ;
#137 = ORIENTED_EDGE ( 'NONE', *, *, #248, .T. ) ;
#138 = CALENDAR_DATE ( 2023, 13, 2 ) ;
#139 = UNCERTAINTY_MEASURE_WITH_UNIT (LENGTH_MEASURE( 1.000000000000000082E-05 ), #53, 'distance_accuracy_value', 'NONE');
#140 = ORIENTED_EDGE ( 'NONE', *, *, #250, .T. ) ;
#141 = CALENDAR_DATE ( 2023, 13, 2 ) ;
#142 = CARTESIAN_POINT ( 'NONE',  ( -8.000000000000000000, 0.000000000000000000, 0.000000000000000000 ) ) ;
#143 = AXIS2_PLACEMENT_3D ( 'NONE', #203, #12, #87 ) ;
#144 = ORIENTED_EDGE ( 'NONE', *, *, #167, .T. ) ;
#145 = DIRECTION ( 'NONE',  ( 1.000000000000000000, 0.000000000000000000, -0.000000000000000000 ) ) ;
#146 = AXIS2_PLACEMENT_3D ( 'NONE', #91, #168, #249 ) ;
#147 = CC_DESIGN_DATE_AND_TIME_ASSIGNMENT ( #59, #242, ( #241 ) ) ;
#148 = DIRECTION ( 'NONE',  ( -0.000000000000000000, -0.000000000000000000, -1.000000000000000000 ) ) ;
#149 = EDGE_CURVE ( 'NONE', #197, #3, #126, .T. ) ;
#150 = DIRECTION ( 'NONE',  ( -1.000000000000000000, 0.000000000000000000, 0.000000000000000000 ) ) ;
#151 = DIRECTION ( 'NONE',  ( 1.000000000000000000, 0.000000000000000000, 0.000000000000000000 ) ) ;
#152 = LINE ( 'NONE', #95, #218 ) ;
#153 = CLOSED_SHELL ( 'NONE', ( #155, #75, #230, #94, #24, #66, #185 ) ) ;
#154 = DIRECTION ( 'NONE',  ( 1.000000000000000000, 0.000000000000000000, 0.000000000000000000 ) ) ;
#155 = ADVANCED_FACE ( 'NONE', ( #156 ), #133, .T. ) ;
#156 = FACE_OUTER_BOUND ( 'NONE', #199, .T. ) ;
#157 = ORIENTED_EDGE ( 'NONE', *, *, #250, .F. ) ;
#158 = PERSON_AND_ORGANIZATION_ROLE ( 'design_owner' ) ;
#159 = PERSON ( 'NEURÈENÝ', 'NEURÈENÝ', 'NEURÈENÝ', ('NEURÈENÝ'), ('NEURÈENÝ'), ('NEURÈENÝ') ) ;
#160 = APPROVAL_ROLE ( '' ) ;
#161 = EDGE_LOOP ( 'NONE', ( #140, #165 ) ) ;
#162 = CALENDAR_DATE ( 2023, 13, 2 ) ;
#163 = ORIENTED_EDGE ( 'NONE', *, *, #248, .F. ) ;
#164 = ORIENTED_EDGE ( 'NONE', *, *, #167, .F. ) ;
#165 = ORIENTED_EDGE ( 'NONE', *, *, #121, .T. ) ;
#166 = SECURITY_CLASSIFICATION ( '', '', #4 ) ;
#167 = EDGE_CURVE ( 'NONE', #7, #177, #117, .T. ) ;
#168 = DIRECTION ( 'NONE',  ( 0.000000000000000000, 0.000000000000000000, 1.000000000000000000 ) ) ;
#169 = CARTESIAN_POINT ( 'NONE',  ( -8.000000000000000000, 0.000000000000000000, 5.000000000000000000 ) ) ;
#170 = PRODUCT_DEFINITION_FORMATION_WITH_SPECIFIED_SOURCE ( 'LIBOVOLNÝ', '', #106, .NOT_KNOWN. ) ;
#171 = EDGE_LOOP ( 'NONE', ( #217, #11, #221, #163 ) ) ;
#172 = VECTOR ( 'NONE', #148, 1000.000000000000000 ) ;
#173 = DIRECTION ( 'NONE',  ( 1.000000000000000000, 0.000000000000000000, 0.000000000000000000 ) ) ;
#174 = ORIENTED_EDGE ( 'NONE', *, *, #211, .F. ) ;
#175 = CARTESIAN_POINT ( 'NONE',  ( 0.000000000000000000, 0.000000000000000000, 0.000000000000000000 ) ) ;
#176 = COORDINATED_UNIVERSAL_TIME_OFFSET ( 1, 0, .AHEAD. ) ;
#177 = VERTEX_POINT ( 'NONE', #219 ) ;
#178 = AXIS2_PLACEMENT_3D ( 'NONE', #114, #21, #173 ) ;
#179 = PERSON_AND_ORGANIZATION_ROLE ( 'creator' ) ;
#180 = CARTESIAN_POINT ( 'NONE',  ( -5.100000000000001421, 0.000000000000000000, 200.0000000000000000 ) ) ;
#181 = ORIENTED_EDGE ( 'NONE', *, *, #216, .F. ) ;
#182 = APPROVAL_PERSON_ORGANIZATION ( #124, #90, #160 ) ;
#183 = CARTESIAN_POINT ( 'NONE',  ( 0.000000000000000000, 0.000000000000000000, 5.000000000000000000 ) ) ;
#184 = CC_DESIGN_APPROVAL ( #190, ( #241 ) ) ;
#185 = ADVANCED_FACE ( 'NONE', ( #234 ), #22, .T. ) ;
#186 = DIRECTION ( 'NONE',  ( -0.000000000000000000, -0.000000000000000000, -1.000000000000000000 ) ) ;
#187 = APPROVAL ( #107, 'NEURÈENÝ' ) ;
#188 = AXIS2_PLACEMENT_3D ( 'NONE', #223, #33, #108 ) ;
#189 = CIRCLE ( 'NONE', #146, 5.100000000000001421 ) ;
#190 = APPROVAL ( #196, 'NEURÈENÝ' ) ;
#191 = DIRECTION ( 'NONE',  ( 0.000000000000000000, 0.000000000000000000, 1.000000000000000000 ) ) ;
#192 = COORDINATED_UNIVERSAL_TIME_OFFSET ( 1, 0, .AHEAD. ) ;
#193 = CC_DESIGN_PERSON_AND_ORGANIZATION_ASSIGNMENT ( #235, #198, ( #241 ) ) ;
#194 = LOCAL_TIME ( 12, 14, 6.000000000000000000, #176 ) ;
#195 = ORIENTED_EDGE ( 'NONE', *, *, #149, .T. ) ;
#196 = APPROVAL_STATUS ( 'not_yet_approved' ) ;
#197 = VERTEX_POINT ( 'NONE', #214 ) ;
#198 = PERSON_AND_ORGANIZATION_ROLE ( 'creator' ) ;
#199 = EDGE_LOOP ( 'NONE', ( #238, #201, #28, #84 ) ) ;
#200 = DIRECTION ( 'NONE',  ( 0.000000000000000000, 0.000000000000000000, 1.000000000000000000 ) ) ;
#201 = ORIENTED_EDGE ( 'NONE', *, *, #216, .T. ) ;
#202 = EDGE_CURVE ( 'NONE', #177, #7, #205, .T. ) ;
#203 = CARTESIAN_POINT ( 'NONE',  ( 0.000000000000000000, 0.000000000000000000, 200.0000000000000000 ) ) ;
#204 = CARTESIAN_POINT ( 'NONE',  ( 8.000000000000000000, 9.797174393178825657E-16, 5.000000000000000000 ) ) ;
#205 = CIRCLE ( 'NONE', #178, 8.000000000000000000 ) ;
#206 = DIRECTION ( 'NONE',  ( 0.000000000000000000, 0.000000000000000000, 1.000000000000000000 ) ) ;
#207 = EDGE_CURVE ( 'NONE', #81, #177, #116, .T. ) ;
#208 = MANIFOLD_SOLID_BREP ( 'Pøidat vysunutím3', #153 ) ;
#209 = LOCAL_TIME ( 12, 14, 6.000000000000000000, #222 ) ;
#210 = FACE_BOUND ( 'NONE', #101, .T. ) ;
#211 = EDGE_CURVE ( 'NONE', #3, #197, #128, .T. ) ;
#212 = CARTESIAN_POINT ( 'NONE',  ( 0.000000000000000000, 0.000000000000000000, 5.000000000000000000 ) ) ;
#213 = VECTOR ( 'NONE', #72, 1000.000000000000000 ) ;
#214 = CARTESIAN_POINT ( 'NONE',  ( -5.100000000000001421, 0.000000000000000000, 5.000000000000000000 ) ) ;
#215 = APPLICATION_CONTEXT ( 'configuration controlled 3d designs of mechanical parts and assemblies' ) ;
#216 = EDGE_CURVE ( 'NONE', #131, #3, #152, .T. ) ;
#217 = ORIENTED_EDGE ( 'NONE', *, *, #121, .F. ) ;
#218 = VECTOR ( 'NONE', #40, 1000.000000000000000 ) ;
#219 = CARTESIAN_POINT ( 'NONE',  ( 8.000000000000000000, 9.797174393178825657E-16, 0.000000000000000000 ) ) ;
#220 = APPLICATION_PROTOCOL_DEFINITION ( 'international standard', 'config_control_design', 1994, #39 ) ;
#221 = ORIENTED_EDGE ( 'NONE', *, *, #202, .T. ) ;
#222 = COORDINATED_UNIVERSAL_TIME_OFFSET ( 1, 0, .AHEAD. ) ;
#223 = CARTESIAN_POINT ( 'NONE',  ( 0.000000000000000000, 0.000000000000000000, 200.0000000000000000 ) ) ;
#224 = LOCAL_TIME ( 12, 14, 6.000000000000000000, #239 ) ;
#225 = COORDINATED_UNIVERSAL_TIME_OFFSET ( 1, 0, .AHEAD. ) ;
#226 = PERSON_AND_ORGANIZATION ( #159, #229 ) ;
#227 = PRODUCT_RELATED_PRODUCT_CATEGORY ( 'detail', '', ( #106 ) ) ;
#228 = DIRECTION ( 'NONE',  ( 1.000000000000000000, 0.000000000000000000, -0.000000000000000000 ) ) ;
#229 = ORGANIZATION ( 'NEURÈENÝ', 'NEURÈENÝ', '' ) ;
#230 = ADVANCED_FACE ( 'NONE', ( #233 ), #113, .T. ) ;
#231 = DIRECTION ( 'NONE',  ( 1.000000000000000000, 0.000000000000000000, 0.000000000000000000 ) ) ;
#232 = EDGE_CURVE ( 'NONE', #49, #131, #189, .T. ) ;
#233 = FACE_OUTER_BOUND ( 'NONE', #134, .T. ) ;
#234 = FACE_OUTER_BOUND ( 'NONE', #103, .T. ) ;
#235 = PERSON_AND_ORGANIZATION ( #159, #229 ) ;
#236 = DESIGN_CONTEXT ( 'detailed design', #39, 'design' ) ;
#237 = AXIS2_PLACEMENT_3D ( 'NONE', #92, #20, #132 ) ;
#238 = ORIENTED_EDGE ( 'NONE', *, *, #52, .F. ) ;
#239 = COORDINATED_UNIVERSAL_TIME_OFFSET ( 1, 0, .AHEAD. ) ;
#240 = CARTESIAN_POINT ( 'NONE',  ( 0.000000000000000000, 0.000000000000000000, 0.000000000000000000 ) ) ;
#241 = PRODUCT_DEFINITION ( 'NEZNÁMÝ', '', #170, #236 ) ;
#242 = DATE_TIME_ROLE ( 'creation_date' ) ;
#243 = AXIS2_PLACEMENT_3D ( 'NONE', #50, #206, #36 ) ;
#244 = CC_DESIGN_APPROVAL ( #187, ( #170 ) ) ;
#245 = AXIS2_PLACEMENT_3D ( 'NONE', #251, #73, #151 ) ;
#246 = CARTESIAN_POINT ( 'NONE',  ( -8.000000000000000000, 0.000000000000000000, 5.000000000000000000 ) ) ;
#247 = FACE_OUTER_BOUND ( 'NONE', #171, .T. ) ;
#248 = EDGE_CURVE ( 'NONE', #76, #7, #55, .T. ) ;
#249 = DIRECTION ( 'NONE',  ( 1.000000000000000000, 0.000000000000000000, 0.000000000000000000 ) ) ;
#250 = EDGE_CURVE ( 'NONE', #76, #81, #15, .T. ) ;
#251 = CARTESIAN_POINT ( 'NONE',  ( 0.000000000000000000, 0.000000000000000000, 5.000000000000000000 ) ) ;
#252 = LOCAL_TIME ( 12, 14, 6.000000000000000000, #192 ) ;
#253 = DIRECTION ( 'NONE',  ( 1.000000000000000000, 0.000000000000000000, -0.000000000000000000 ) ) ;
#254 = CARTESIAN_POINT ( 'NONE',  ( 0.000000000000000000, 0.000000000000000000, 0.000000000000000000 ) ) ;
#255 = CIRCLE ( 'NONE', #143, 5.100000000000001421 ) ;
ENDSEC;
END-ISO-10303-21;
