ISO-10303-21;
HEADER;
FILE_DESCRIPTION (( 'STEP AP203' ),
    '1' );
FILE_NAME ('ce96.STEP',
    '2023-01-31T14:47:37',
    ( '' ),
    ( '' ),
    'SwSTEP 2.0',
    'SolidWorks 2019',
    '' );
FILE_SCHEMA (( 'CONFIG_CONTROL_DESIGN' ));
ENDSEC;

DATA;
#1 =( NAMED_UNIT ( * ) PLANE_ANGLE_UNIT ( ) SI_UNIT ( $, .RADIAN. ) );
#2 = ORIENTED_EDGE ( 'NONE', *, *, #37, .F. ) ;
#3 = CARTESIAN_POINT ( 'NONE',  ( 0.000000000000000000, 0.000000000000000000, 100.0000000000000000 ) ) ;
#4 = APPROVAL_DATE_TIME ( #193, #25 ) ;
#5 = FACE_OUTER_BOUND ( 'NONE', #188, .T. ) ;
#6 = APPLICATION_CONTEXT ( 'configuration controlled 3d designs of mechanical parts and assemblies' ) ;
#7 = DIRECTION ( 'NONE',  ( 1.000000000000000000, 0.000000000000000000, 0.000000000000000000 ) ) ;
#8 = DIRECTION ( 'NONE',  ( -1.000000000000000000, 0.000000000000000000, 0.000000000000000000 ) ) ;
#9 = DIRECTION ( 'NONE',  ( -0.000000000000000000, -0.000000000000000000, -1.000000000000000000 ) ) ;
#10 = FACE_OUTER_BOUND ( 'NONE', #23, .T. ) ;
#11 = FACE_OUTER_BOUND ( 'NONE', #154, .T. ) ;
#12 = CC_DESIGN_SECURITY_CLASSIFICATION ( #167, ( #244 ) ) ;
#13 = MECHANICAL_CONTEXT ( 'NONE', #6, 'mechanical' ) ;
#14 = DIRECTION ( 'NONE',  ( 1.000000000000000000, 0.000000000000000000, 0.000000000000000000 ) ) ;
#15 = ORIENTED_EDGE ( 'NONE', *, *, #41, .T. ) ;
#16 = EDGE_CURVE ( 'NONE', #19, #238, #129, .T. ) ;
#17 = CARTESIAN_POINT ( 'NONE',  ( -0.5000000000000000000, 0.000000000000000000, 100.0000000000000000 ) ) ;
#18 = LINE ( 'NONE', #101, #56 ) ;
#19 = VERTEX_POINT ( 'NONE', #54 ) ;
#20 = AXIS2_PLACEMENT_3D ( 'NONE', #231, #93, #72 ) ;
#21 = ORIENTED_EDGE ( 'NONE', *, *, #105, .F. ) ;
#22 = COORDINATED_UNIVERSAL_TIME_OFFSET ( 1, 0, .AHEAD. ) ;
#23 = EDGE_LOOP ( 'NONE', ( #174, #200 ) ) ;
#24 = PLANE ( 'NONE',  #47 ) ;
#25 = APPROVAL ( #74, 'NEURÈENÝ' ) ;
#26 = CIRCLE ( 'NONE', #201, 1.250000000000000000 ) ;
#27 = CC_DESIGN_APPROVAL ( #123, ( #255 ) ) ;
#28 = DIRECTION ( 'NONE',  ( 0.000000000000000000, 0.000000000000000000, 1.000000000000000000 ) ) ;
#29 = SHAPE_DEFINITION_REPRESENTATION ( #91, #191 ) ;
#30 = FACE_OUTER_BOUND ( 'NONE', #121, .T. ) ;
#31 = DIRECTION ( 'NONE',  ( -1.000000000000000000, 0.000000000000000000, 0.000000000000000000 ) ) ;
#32 = PERSON_AND_ORGANIZATION ( #181, #124 ) ;
#33 = VECTOR ( 'NONE', #211, 1000.000000000000000 ) ;
#34 = CARTESIAN_POINT ( 'NONE',  ( 0.000000000000000000, 0.000000000000000000, 0.000000000000000000 ) ) ;
#35 = AXIS2_PLACEMENT_3D ( 'NONE', #186, #161, #203 ) ;
#36 = DATE_AND_TIME ( #132, #177 ) ;
#37 = EDGE_CURVE ( 'NONE', #238, #19, #230, .T. ) ;
#38 = FACE_BOUND ( 'NONE', #141, .T. ) ;
#39 = DIRECTION ( 'NONE',  ( 0.000000000000000000, 0.000000000000000000, 1.000000000000000000 ) ) ;
#40 = DIRECTION ( 'NONE',  ( 0.000000000000000000, 0.000000000000000000, 1.000000000000000000 ) ) ;
#41 = EDGE_CURVE ( 'NONE', #19, #253, #197, .T. ) ;
#42 = ORIENTED_EDGE ( 'NONE', *, *, #37, .T. ) ;
#43 = AXIS2_PLACEMENT_3D ( 'NONE', #254, #228, #150 ) ;
#44 = DIRECTION ( 'NONE',  ( 0.000000000000000000, 0.000000000000000000, 1.000000000000000000 ) ) ;
#45 = APPROVAL_ROLE ( '' ) ;
#46 = DATE_AND_TIME ( #62, #137 ) ;
#47 = AXIS2_PLACEMENT_3D ( 'NONE', #82, #179, #159 ) ;
#48 = DIRECTION ( 'NONE',  ( -0.000000000000000000, -0.000000000000000000, -1.000000000000000000 ) ) ;
#49 = DIRECTION ( 'NONE',  ( 0.000000000000000000, 0.000000000000000000, 1.000000000000000000 ) ) ;
#50 = COORDINATED_UNIVERSAL_TIME_OFFSET ( 1, 0, .AHEAD. ) ;
#51 = ADVANCED_FACE ( 'NONE', ( #38, #122 ), #24, .T. ) ;
#52 =( LENGTH_UNIT ( ) NAMED_UNIT ( * ) SI_UNIT ( .MILLI., .METRE. ) );
#53 = CALENDAR_DATE ( 2023, 31, 1 ) ;
#54 = CARTESIAN_POINT ( 'NONE',  ( 0.5000000000000000000, 6.123233995736766036E-17, 100.0000000000000000 ) ) ;
#55 = ORIENTED_EDGE ( 'NONE', *, *, #80, .F. ) ;
#56 = VECTOR ( 'NONE', #9, 1000.000000000000000 ) ;
#57 = LINE ( 'NONE', #61, #95 ) ;
#58 = AXIS2_PLACEMENT_3D ( 'NONE', #75, #39, #7 ) ;
#59 = ADVANCED_FACE ( 'NONE', ( #5 ), #157, .T. ) ;
#60 = ORIENTED_EDGE ( 'NONE', *, *, #66, .T. ) ;
#61 = CARTESIAN_POINT ( 'NONE',  ( -0.5000000000000000000, 0.000000000000000000, 100.0000000000000000 ) ) ;
#62 = CALENDAR_DATE ( 2023, 31, 1 ) ;
#63 = DIRECTION ( 'NONE',  ( 1.000000000000000000, 0.000000000000000000, 0.000000000000000000 ) ) ;
#64 = SECURITY_CLASSIFICATION_LEVEL ( 'unclassified' ) ;
#65 = CARTESIAN_POINT ( 'NONE',  ( 0.000000000000000000, 0.000000000000000000, 1.199999999999999956 ) ) ;
#66 = EDGE_CURVE ( 'NONE', #238, #241, #57, .T. ) ;
#67 = CARTESIAN_POINT ( 'NONE',  ( 0.000000000000000000, 0.000000000000000000, 0.000000000000000000 ) ) ;
#68 = APPROVAL_STATUS ( 'not_yet_approved' ) ;
#69 = CC_DESIGN_PERSON_AND_ORGANIZATION_ASSIGNMENT ( #234, #237, ( #244 ) ) ;
#70 = CARTESIAN_POINT ( 'NONE',  ( -0.5000000000000000000, 0.000000000000000000, 1.199999999999999956 ) ) ;
#71 = ORIENTED_EDGE ( 'NONE', *, *, #118, .T. ) ;
#72 = DIRECTION ( 'NONE',  ( 1.000000000000000000, 0.000000000000000000, 0.000000000000000000 ) ) ;
#73 = DESIGN_CONTEXT ( 'detailed design', #232, 'design' ) ;
#74 = APPROVAL_STATUS ( 'not_yet_approved' ) ;
#75 = CARTESIAN_POINT ( 'NONE',  ( 0.000000000000000000, 0.000000000000000000, 100.0000000000000000 ) ) ;
#76 =( GEOMETRIC_REPRESENTATION_CONTEXT ( 3 ) GLOBAL_UNCERTAINTY_ASSIGNED_CONTEXT ( ( #112 ) ) GLOBAL_UNIT_ASSIGNED_CONTEXT ( ( #52, #1, #111 ) ) REPRESENTATION_CONTEXT ( 'NONE', 'WORKASPACE' ) );
#77 = PERSON_AND_ORGANIZATION ( #181, #124 ) ;
#78 = ORIENTED_EDGE ( 'NONE', *, *, #89, .T. ) ;
#79 = DIRECTION ( 'NONE',  ( -0.000000000000000000, -0.000000000000000000, -1.000000000000000000 ) ) ;
#80 = EDGE_CURVE ( 'NONE', #253, #241, #220, .T. ) ;
#81 = APPROVAL_ROLE ( '' ) ;
#82 = CARTESIAN_POINT ( 'NONE',  ( 0.000000000000000000, 0.000000000000000000, 1.199999999999999956 ) ) ;
#83 = DIRECTION ( 'NONE',  ( -0.000000000000000000, -0.000000000000000000, -1.000000000000000000 ) ) ;
#84 = APPROVAL_STATUS ( 'not_yet_approved' ) ;
#85 = CARTESIAN_POINT ( 'NONE',  ( 0.000000000000000000, 0.000000000000000000, 1.199999999999999956 ) ) ;
#86 = PERSON_AND_ORGANIZATION_ROLE ( 'classification_officer' ) ;
#87 = PERSON_AND_ORGANIZATION ( #181, #124 ) ;
#88 = CARTESIAN_POINT ( 'NONE',  ( 0.000000000000000000, 0.000000000000000000, 100.0000000000000000 ) ) ;
#89 = EDGE_CURVE ( 'NONE', #198, #133, #18, .T. ) ;
#90 = CARTESIAN_POINT ( 'NONE',  ( -1.250000000000000000, 0.000000000000000000, 1.199999999999999956 ) ) ;
#91 = PRODUCT_DEFINITION_SHAPE ( 'NONE', 'NONE',  #255 ) ;
#92 = AXIS2_PLACEMENT_3D ( 'NONE', #202, #48, #31 ) ;
#93 = DIRECTION ( 'NONE',  ( 0.000000000000000000, 0.000000000000000000, 1.000000000000000000 ) ) ;
#94 = ORIENTED_EDGE ( 'NONE', *, *, #233, .T. ) ;
#95 = VECTOR ( 'NONE', #83, 1000.000000000000000 ) ;
#96 = ORIENTED_EDGE ( 'NONE', *, *, #251, .F. ) ;
#97 = APPROVAL ( #84, 'NEURÈENÝ' ) ;
#98 = CARTESIAN_POINT ( 'NONE',  ( 0.5000000000000000000, 6.123233995736766036E-17, 100.0000000000000000 ) ) ;
#99 = AXIS2_PLACEMENT_3D ( 'NONE', #160, #115, #194 ) ;
#100 = CARTESIAN_POINT ( 'NONE',  ( 0.000000000000000000, 0.000000000000000000, 1.199999999999999956 ) ) ;
#101 = CARTESIAN_POINT ( 'NONE',  ( -1.250000000000000000, 0.000000000000000000, 1.199999999999999956 ) ) ;
#102 = CALENDAR_DATE ( 2023, 31, 1 ) ;
#103 = CLOSED_SHELL ( 'NONE', ( #152, #59, #190, #51, #187, #164, #229 ) ) ;
#104 = DIRECTION ( 'NONE',  ( 1.000000000000000000, 0.000000000000000000, 0.000000000000000000 ) ) ;
#105 = EDGE_CURVE ( 'NONE', #198, #215, #26, .T. ) ;
#106 = CARTESIAN_POINT ( 'NONE',  ( 1.250000000000000000, 1.530808498934191571E-16, 0.000000000000000000 ) ) ;
#107 = PERSON_AND_ORGANIZATION_ROLE ( 'design_owner' ) ;
#108 = CIRCLE ( 'NONE', #168, 1.250000000000000000 ) ;
#109 = DIRECTION ( 'NONE',  ( 1.000000000000000000, 0.000000000000000000, 0.000000000000000000 ) ) ;
#110 = APPROVAL_DATE_TIME ( #36, #123 ) ;
#111 =( NAMED_UNIT ( * ) SI_UNIT ( $, .STERADIAN. ) SOLID_ANGLE_UNIT ( ) );
#112 = UNCERTAINTY_MEASURE_WITH_UNIT (LENGTH_MEASURE( 1.000000000000000082E-05 ), #52, 'distance_accuracy_value', 'NONE');
#113 = CIRCLE ( 'NONE', #153, 1.250000000000000000 ) ;
#114 = CALENDAR_DATE ( 2023, 31, 1 ) ;
#115 = DIRECTION ( 'NONE',  ( 0.000000000000000000, 0.000000000000000000, 1.000000000000000000 ) ) ;
#116 = DATE_TIME_ROLE ( 'creation_date' ) ;
#117 = ORIENTED_EDGE ( 'NONE', *, *, #118, .F. ) ;
#118 = EDGE_CURVE ( 'NONE', #241, #253, #204, .T. ) ;
#119 = AXIS2_PLACEMENT_3D ( 'NONE', #185, #147, #226 ) ;
#120 = DIRECTION ( 'NONE',  ( 1.000000000000000000, 0.000000000000000000, 0.000000000000000000 ) ) ;
#121 = EDGE_LOOP ( 'NONE', ( #142, #15, #169, #138 ) ) ;
#122 = FACE_OUTER_BOUND ( 'NONE', #151, .T. ) ;
#123 = APPROVAL ( #68, 'NEURÈENÝ' ) ;
#124 = ORGANIZATION ( 'NEURÈENÝ', 'NEURÈENÝ', '' ) ;
#125 = PERSON_AND_ORGANIZATION ( #181, #124 ) ;
#126 = CARTESIAN_POINT ( 'NONE',  ( -1.250000000000000000, 0.000000000000000000, 0.000000000000000000 ) ) ;
#127 = CC_DESIGN_PERSON_AND_ORGANIZATION_ASSIGNMENT ( #77, #199, ( #255 ) ) ;
#128 = APPROVAL_DATE_TIME ( #46, #97 ) ;
#129 = CIRCLE ( 'NONE', #58, 0.5000000000000000000 ) ;
#130 = DIRECTION ( 'NONE',  ( 0.000000000000000000, 0.000000000000000000, 1.000000000000000000 ) ) ;
#131 = CARTESIAN_POINT ( 'NONE',  ( 0.5000000000000000000, 6.123233995736766036E-17, 1.199999999999999956 ) ) ;
#132 = CALENDAR_DATE ( 2023, 31, 1 ) ;
#133 = VERTEX_POINT ( 'NONE', #126 ) ;
#134 = PLANE ( 'NONE',  #43 ) ;
#135 = LOCAL_TIME ( 15, 47, 37.00000000000000000, #22 ) ;
#136 = PERSON_AND_ORGANIZATION_ROLE ( 'design_supplier' ) ;
#137 = LOCAL_TIME ( 15, 47, 37.00000000000000000, #145 ) ;
#138 = ORIENTED_EDGE ( 'NONE', *, *, #66, .F. ) ;
#139 = DATE_AND_TIME ( #114, #135 ) ;
#140 = ORIENTED_EDGE ( 'NONE', *, *, #251, .T. ) ;
#141 = EDGE_LOOP ( 'NONE', ( #117, #55 ) ) ;
#142 = ORIENTED_EDGE ( 'NONE', *, *, #16, .F. ) ;
#143 = PRODUCT_RELATED_PRODUCT_CATEGORY ( 'detail', '', ( #206 ) ) ;
#144 = ORIENTED_EDGE ( 'NONE', *, *, #89, .F. ) ;
#145 = COORDINATED_UNIVERSAL_TIME_OFFSET ( 1, 0, .AHEAD. ) ;
#146 = PLANE ( 'NONE',  #35 ) ;
#147 = DIRECTION ( 'NONE',  ( -0.000000000000000000, -0.000000000000000000, -1.000000000000000000 ) ) ;
#148 = AXIS2_PLACEMENT_3D ( 'NONE', #88, #246, #243 ) ;
#149 = APPROVAL_ROLE ( '' ) ;
#150 = DIRECTION ( 'NONE',  ( 1.000000000000000000, 0.000000000000000000, -0.000000000000000000 ) ) ;
#151 = EDGE_LOOP ( 'NONE', ( #178, #140 ) ) ;
#152 = ADVANCED_FACE ( 'NONE', ( #30 ), #205, .T. ) ;
#153 = AXIS2_PLACEMENT_3D ( 'NONE', #172, #49, #14 ) ;
#154 = EDGE_LOOP ( 'NONE', ( #217, #21, #78, #213 ) ) ;
#155 = EDGE_LOOP ( 'NONE', ( #218, #2, #60, #71 ) ) ;
#156 = MANIFOLD_SOLID_BREP ( 'Pøidat vysunutím3', #103 ) ;
#157 = CYLINDRICAL_SURFACE ( 'NONE', #225, 1.250000000000000000 ) ;
#158 = PERSON_AND_ORGANIZATION ( #181, #124 ) ;
#159 = DIRECTION ( 'NONE',  ( 1.000000000000000000, 0.000000000000000000, -0.000000000000000000 ) ) ;
#160 = CARTESIAN_POINT ( 'NONE',  ( 0.000000000000000000, 0.000000000000000000, 1.199999999999999956 ) ) ;
#161 = DIRECTION ( 'NONE',  ( 0.000000000000000000, 0.000000000000000000, 1.000000000000000000 ) ) ;
#162 = AXIS2_PLACEMENT_3D ( 'NONE', #65, #44, #104 ) ;
#163 = FACE_OUTER_BOUND ( 'NONE', #155, .T. ) ;
#164 = ADVANCED_FACE ( 'NONE', ( #163 ), #249, .T. ) ;
#165 = CYLINDRICAL_SURFACE ( 'NONE', #92, 1.250000000000000000 ) ;
#166 = CARTESIAN_POINT ( 'NONE',  ( 1.250000000000000000, 1.530808498934191571E-16, 1.199999999999999956 ) ) ;
#167 = SECURITY_CLASSIFICATION ( '', '', #64 ) ;
#168 = AXIS2_PLACEMENT_3D ( 'NONE', #67, #28, #184 ) ;
#169 = ORIENTED_EDGE ( 'NONE', *, *, #80, .T. ) ;
#170 = PERSON_AND_ORGANIZATION ( #181, #124 ) ;
#171 = FACE_OUTER_BOUND ( 'NONE', #242, .T. ) ;
#172 = CARTESIAN_POINT ( 'NONE',  ( 0.000000000000000000, 0.000000000000000000, 0.000000000000000000 ) ) ;
#173 = CC_DESIGN_DATE_AND_TIME_ASSIGNMENT ( #139, #116, ( #255 ) ) ;
#174 = ORIENTED_EDGE ( 'NONE', *, *, #216, .F. ) ;
#175 = VECTOR ( 'NONE', #79, 1000.000000000000000 ) ;
#176 = CIRCLE ( 'NONE', #20, 1.250000000000000000 ) ;
#177 = LOCAL_TIME ( 15, 47, 37.00000000000000000, #50 ) ;
#178 = ORIENTED_EDGE ( 'NONE', *, *, #105, .T. ) ;
#179 = DIRECTION ( 'NONE',  ( 0.000000000000000000, 0.000000000000000000, 1.000000000000000000 ) ) ;
#180 = ORIENTED_EDGE ( 'NONE', *, *, #240, .T. ) ;
#181 = PERSON ( 'NEURÈENÝ', 'NEURÈENÝ', 'NEURÈENÝ', ('NEURÈENÝ'), ('NEURÈENÝ'), ('NEURÈENÝ') ) ;
#182 = AXIS2_PLACEMENT_3D ( 'NONE', #3, #40, #120 ) ;
#183 = DIRECTION ( 'NONE',  ( -0.000000000000000000, -0.000000000000000000, -1.000000000000000000 ) ) ;
#184 = DIRECTION ( 'NONE',  ( 1.000000000000000000, 0.000000000000000000, 0.000000000000000000 ) ) ;
#185 = CARTESIAN_POINT ( 'NONE',  ( 0.000000000000000000, 0.000000000000000000, 100.0000000000000000 ) ) ;
#186 = CARTESIAN_POINT ( 'NONE',  ( 0.000000000000000000, 0.000000000000000000, 0.000000000000000000 ) ) ;
#187 = ADVANCED_FACE ( 'NONE', ( #10 ), #146, .F. ) ;
#188 = EDGE_LOOP ( 'NONE', ( #96, #180, #94, #144 ) ) ;
#189 = LINE ( 'NONE', #210, #33 ) ;
#190 = ADVANCED_FACE ( 'NONE', ( #11 ), #165, .T. ) ;
#191 = ADVANCED_BREP_SHAPE_REPRESENTATION ( 'ce96', ( #156, #236 ), #76 ) ;
#192 = CC_DESIGN_PERSON_AND_ORGANIZATION_ASSIGNMENT ( #32, #107, ( #206 ) ) ;
#193 = DATE_AND_TIME ( #53, #221 ) ;
#194 = DIRECTION ( 'NONE',  ( 1.000000000000000000, 0.000000000000000000, 0.000000000000000000 ) ) ;
#195 = VERTEX_POINT ( 'NONE', #106 ) ;
#196 = COORDINATED_UNIVERSAL_TIME_OFFSET ( 1, 0, .AHEAD. ) ;
#197 = LINE ( 'NONE', #98, #175 ) ;
#198 = VERTEX_POINT ( 'NONE', #90 ) ;
#199 = PERSON_AND_ORGANIZATION_ROLE ( 'creator' ) ;
#200 = ORIENTED_EDGE ( 'NONE', *, *, #233, .F. ) ;
#201 = AXIS2_PLACEMENT_3D ( 'NONE', #85, #130, #63 ) ;
#202 = CARTESIAN_POINT ( 'NONE',  ( 0.000000000000000000, 0.000000000000000000, 1.199999999999999956 ) ) ;
#203 = DIRECTION ( 'NONE',  ( 1.000000000000000000, 0.000000000000000000, -0.000000000000000000 ) ) ;
#204 = CIRCLE ( 'NONE', #162, 0.5000000000000000000 ) ;
#205 = CYLINDRICAL_SURFACE ( 'NONE', #119, 0.5000000000000000000 ) ;
#206 = PRODUCT ( 'ce96', 'ce96', '', ( #13 ) ) ;
#207 = CC_DESIGN_DATE_AND_TIME_ASSIGNMENT ( #219, #245, ( #167 ) ) ;
#208 = APPROVAL_PERSON_ORGANIZATION ( #125, #97, #45 ) ;
#209 = DIRECTION ( 'NONE',  ( 0.000000000000000000, 0.000000000000000000, 1.000000000000000000 ) ) ;
#210 = CARTESIAN_POINT ( 'NONE',  ( 1.250000000000000000, 1.530808498934191571E-16, 1.199999999999999956 ) ) ;
#211 = DIRECTION ( 'NONE',  ( -0.000000000000000000, -0.000000000000000000, -1.000000000000000000 ) ) ;
#212 = APPROVAL_PERSON_ORGANIZATION ( #170, #123, #149 ) ;
#213 = ORIENTED_EDGE ( 'NONE', *, *, #216, .T. ) ;
#214 = PERSON_AND_ORGANIZATION ( #181, #124 ) ;
#215 = VERTEX_POINT ( 'NONE', #166 ) ;
#216 = EDGE_CURVE ( 'NONE', #133, #195, #108, .T. ) ;
#217 = ORIENTED_EDGE ( 'NONE', *, *, #240, .F. ) ;
#218 = ORIENTED_EDGE ( 'NONE', *, *, #41, .F. ) ;
#219 = DATE_AND_TIME ( #102, #235 ) ;
#220 = CIRCLE ( 'NONE', #99, 0.5000000000000000000 ) ;
#221 = LOCAL_TIME ( 15, 47, 37.00000000000000000, #196 ) ;
#222 = APPROVAL_PERSON_ORGANIZATION ( #214, #25, #81 ) ;
#223 = COORDINATED_UNIVERSAL_TIME_OFFSET ( 1, 0, .AHEAD. ) ;
#224 = CC_DESIGN_PERSON_AND_ORGANIZATION_ASSIGNMENT ( #158, #136, ( #244 ) ) ;
#225 = AXIS2_PLACEMENT_3D ( 'NONE', #100, #183, #8 ) ;
#226 = DIRECTION ( 'NONE',  ( -1.000000000000000000, 0.000000000000000000, 0.000000000000000000 ) ) ;
#227 = APPLICATION_PROTOCOL_DEFINITION ( 'international standard', 'config_control_design', 1994, #6 ) ;
#228 = DIRECTION ( 'NONE',  ( 0.000000000000000000, 0.000000000000000000, 1.000000000000000000 ) ) ;
#229 = ADVANCED_FACE ( 'NONE', ( #171 ), #134, .T. ) ;
#230 = CIRCLE ( 'NONE', #182, 0.5000000000000000000 ) ;
#231 = CARTESIAN_POINT ( 'NONE',  ( 0.000000000000000000, 0.000000000000000000, 1.199999999999999956 ) ) ;
#232 = APPLICATION_CONTEXT ( 'configuration controlled 3d designs of mechanical parts and assemblies' ) ;
#233 = EDGE_CURVE ( 'NONE', #195, #133, #113, .T. ) ;
#234 = PERSON_AND_ORGANIZATION ( #181, #124 ) ;
#235 = LOCAL_TIME ( 15, 47, 37.00000000000000000, #223 ) ;
#236 = AXIS2_PLACEMENT_3D ( 'NONE', #34, #209, #109 ) ;
#237 = PERSON_AND_ORGANIZATION_ROLE ( 'creator' ) ;
#238 = VERTEX_POINT ( 'NONE', #17 ) ;
#239 = ORIENTED_EDGE ( 'NONE', *, *, #16, .T. ) ;
#240 = EDGE_CURVE ( 'NONE', #215, #195, #189, .T. ) ;
#241 = VERTEX_POINT ( 'NONE', #70 ) ;
#242 = EDGE_LOOP ( 'NONE', ( #42, #239 ) ) ;
#243 = DIRECTION ( 'NONE',  ( -1.000000000000000000, 0.000000000000000000, 0.000000000000000000 ) ) ;
#244 = PRODUCT_DEFINITION_FORMATION_WITH_SPECIFIED_SOURCE ( 'LIBOVOLNÝ', '', #206, .NOT_KNOWN. ) ;
#245 = DATE_TIME_ROLE ( 'classification_date' ) ;
#246 = DIRECTION ( 'NONE',  ( -0.000000000000000000, -0.000000000000000000, -1.000000000000000000 ) ) ;
#247 = CC_DESIGN_APPROVAL ( #97, ( #167 ) ) ;
#248 = CC_DESIGN_PERSON_AND_ORGANIZATION_ASSIGNMENT ( #87, #86, ( #167 ) ) ;
#249 = CYLINDRICAL_SURFACE ( 'NONE', #148, 0.5000000000000000000 ) ;
#250 = CC_DESIGN_APPROVAL ( #25, ( #244 ) ) ;
#251 = EDGE_CURVE ( 'NONE', #215, #198, #176, .T. ) ;
#252 = APPLICATION_PROTOCOL_DEFINITION ( 'international standard', 'config_control_design', 1994, #232 ) ;
#253 = VERTEX_POINT ( 'NONE', #131 ) ;
#254 = CARTESIAN_POINT ( 'NONE',  ( 0.000000000000000000, 0.000000000000000000, 100.0000000000000000 ) ) ;
#255 = PRODUCT_DEFINITION ( 'NEZNÁMÝ', '', #244, #73 ) ;
ENDSEC;
END-ISO-10303-21;
