ISO-10303-21;
HEADER;
FILE_DESCRIPTION (( 'STEP AP203' ),
    '1' );
FILE_NAME ('f71d.STEP',
    '2023-02-13T14:34:59',
    ( '' ),
    ( '' ),
    'SwSTEP 2.0',
    'SolidWorks 2019',
    '' );
FILE_SCHEMA (( 'CONFIG_CONTROL_DESIGN' ));
ENDSEC;

DATA;
#1 = VERTEX_POINT ( 'NONE', #165 ) ;
#2 = CIRCLE ( 'NONE', #226, 5.000000000000000000 ) ;
#3 = SHAPE_DEFINITION_REPRESENTATION ( #214, #78 ) ;
#4 = DIRECTION ( 'NONE',  ( -0.000000000000000000, -0.000000000000000000, -1.000000000000000000 ) ) ;
#5 = LINE ( 'NONE', #141, #205 ) ;
#6 = APPROVAL ( #233, 'NEURÈENÝ' ) ;
#7 = CARTESIAN_POINT ( 'NONE',  ( 2.600000000000000089, 3.184081677783118191E-16, 3.000000000000000000 ) ) ;
#8 = VECTOR ( 'NONE', #13, 1000.000000000000000 ) ;
#9 = FACE_OUTER_BOUND ( 'NONE', #80, .T. ) ;
#10 = ADVANCED_FACE ( 'NONE', ( #238 ), #195, .T. ) ;
#11 = DIRECTION ( 'NONE',  ( 0.000000000000000000, 0.000000000000000000, 1.000000000000000000 ) ) ;
#12 = EDGE_CURVE ( 'NONE', #213, #24, #26, .T. ) ;
#13 = DIRECTION ( 'NONE',  ( -0.000000000000000000, -0.000000000000000000, -1.000000000000000000 ) ) ;
#14 = CIRCLE ( 'NONE', #111, 2.600000000000000089 ) ;
#15 = AXIS2_PLACEMENT_3D ( 'NONE', #249, #60, #97 ) ;
#16 = FACE_OUTER_BOUND ( 'NONE', #35, .T. ) ;
#17 = APPROVAL_ROLE ( '' ) ;
#18 = CARTESIAN_POINT ( 'NONE',  ( 0.000000000000000000, 0.000000000000000000, 3.000000000000000000 ) ) ;
#19 = PERSON_AND_ORGANIZATION ( #169, #148 ) ;
#20 = CALENDAR_DATE ( 2023, 13, 2 ) ;
#21 = AXIS2_PLACEMENT_3D ( 'NONE', #136, #52, #203 ) ;
#22 = EDGE_CURVE ( 'NONE', #24, #230, #5, .T. ) ;
#23 = DATE_TIME_ROLE ( 'creation_date' ) ;
#24 = VERTEX_POINT ( 'NONE', #223 ) ;
#25 = ORIENTED_EDGE ( 'NONE', *, *, #167, .F. ) ;
#26 = CIRCLE ( 'NONE', #62, 2.600000000000000089 ) ;
#27 = CARTESIAN_POINT ( 'NONE',  ( 0.000000000000000000, 0.000000000000000000, 3.000000000000000000 ) ) ;
#28 = APPROVAL_STATUS ( 'not_yet_approved' ) ;
#29 = DIRECTION ( 'NONE',  ( 0.000000000000000000, 0.000000000000000000, 1.000000000000000000 ) ) ;
#30 = DIRECTION ( 'NONE',  ( 0.000000000000000000, 0.000000000000000000, 1.000000000000000000 ) ) ;
#31 = ADVANCED_FACE ( 'NONE', ( #86, #9 ), #143, .T. ) ;
#32 = ORIENTED_EDGE ( 'NONE', *, *, #22, .F. ) ;
#33 = CC_DESIGN_DATE_AND_TIME_ASSIGNMENT ( #191, #23, ( #200 ) ) ;
#34 = EDGE_CURVE ( 'NONE', #232, #178, #108, .T. ) ;
#35 = EDGE_LOOP ( 'NONE', ( #154, #81, #174, #32 ) ) ;
#36 = CARTESIAN_POINT ( 'NONE',  ( 0.000000000000000000, 0.000000000000000000, 315.0000000000000000 ) ) ;
#37 = ADVANCED_FACE ( 'NONE', ( #185 ), #122, .T. ) ;
#38 = DIRECTION ( 'NONE',  ( 1.000000000000000000, 0.000000000000000000, -0.000000000000000000 ) ) ;
#39 = SECURITY_CLASSIFICATION ( '', '', #85 ) ;
#40 = LINE ( 'NONE', #76, #8 ) ;
#41 = FACE_OUTER_BOUND ( 'NONE', #109, .T. ) ;
#42 = EDGE_CURVE ( 'NONE', #232, #1, #125, .T. ) ;
#43 = APPROVAL_PERSON_ORGANIZATION ( #177, #6, #212 ) ;
#44 = ORIENTED_EDGE ( 'NONE', *, *, #42, .F. ) ;
#45 = EDGE_CURVE ( 'NONE', #103, #230, #14, .T. ) ;
#46 = CC_DESIGN_PERSON_AND_ORGANIZATION_ASSIGNMENT ( #19, #47, ( #200 ) ) ;
#47 = PERSON_AND_ORGANIZATION_ROLE ( 'creator' ) ;
#48 = LOCAL_TIME ( 15, 34, 59.00000000000000000, #114 ) ;
#49 = CYLINDRICAL_SURFACE ( 'NONE', #240, 5.000000000000000000 ) ;
#50 = CLOSED_SHELL ( 'NONE', ( #210, #221, #126, #31, #142, #37, #10 ) ) ;
#51 = DIRECTION ( 'NONE',  ( 1.000000000000000000, 0.000000000000000000, 0.000000000000000000 ) ) ;
#52 = DIRECTION ( 'NONE',  ( 0.000000000000000000, 0.000000000000000000, 1.000000000000000000 ) ) ;
#53 = APPROVAL_ROLE ( '' ) ;
#54 = FACE_OUTER_BOUND ( 'NONE', #67, .T. ) ;
#55 = AXIS2_PLACEMENT_3D ( 'NONE', #110, #77, #146 ) ;
#56 = MECHANICAL_CONTEXT ( 'NONE', #197, 'mechanical' ) ;
#57 = DESIGN_CONTEXT ( 'detailed design', #163, 'design' ) ;
#58 = CARTESIAN_POINT ( 'NONE',  ( 0.000000000000000000, 0.000000000000000000, 0.000000000000000000 ) ) ;
#59 = CARTESIAN_POINT ( 'NONE',  ( 2.600000000000000089, 3.184081677783118191E-16, 315.0000000000000000 ) ) ;
#60 = DIRECTION ( 'NONE',  ( 0.000000000000000000, 0.000000000000000000, 1.000000000000000000 ) ) ;
#61 = EDGE_CURVE ( 'NONE', #252, #178, #190, .T. ) ;
#62 = AXIS2_PLACEMENT_3D ( 'NONE', #201, #29, #184 ) ;
#63 = LOCAL_TIME ( 15, 34, 59.00000000000000000, #124 ) ;
#64 = EDGE_LOOP ( 'NONE', ( #116, #82 ) ) ;
#65 = ORIENTED_EDGE ( 'NONE', *, *, #217, .T. ) ;
#66 = CIRCLE ( 'NONE', #96, 5.000000000000000000 ) ;
#67 = EDGE_LOOP ( 'NONE', ( #215, #192 ) ) ;
#68 = EDGE_CURVE ( 'NONE', #24, #213, #171, .T. ) ;
#69 = DATE_AND_TIME ( #234, #183 ) ;
#70 = DIRECTION ( 'NONE',  ( -0.000000000000000000, -0.000000000000000000, -1.000000000000000000 ) ) ;
#71 = EDGE_CURVE ( 'NONE', #178, #252, #66, .T. ) ;
#72 = DIRECTION ( 'NONE',  ( 1.000000000000000000, 0.000000000000000000, -0.000000000000000000 ) ) ;
#73 = PERSON_AND_ORGANIZATION_ROLE ( 'creator' ) ;
#74 = DIRECTION ( 'NONE',  ( -0.000000000000000000, -0.000000000000000000, -1.000000000000000000 ) ) ;
#75 = APPROVAL ( #28, 'NEURÈENÝ' ) ;
#76 = CARTESIAN_POINT ( 'NONE',  ( -5.000000000000000000, 0.000000000000000000, 3.000000000000000000 ) ) ;
#77 = DIRECTION ( 'NONE',  ( -0.000000000000000000, -0.000000000000000000, -1.000000000000000000 ) ) ;
#78 = ADVANCED_BREP_SHAPE_REPRESENTATION ( 'f71d', ( #198, #100 ), #161 ) ;
#79 = CC_DESIGN_SECURITY_CLASSIFICATION ( #39, ( #113 ) ) ;
#80 = EDGE_LOOP ( 'NONE', ( #176, #235 ) ) ;
#81 = ORIENTED_EDGE ( 'NONE', *, *, #104, .T. ) ;
#82 = ORIENTED_EDGE ( 'NONE', *, *, #12, .T. ) ;
#83 = PERSON_AND_ORGANIZATION ( #169, #148 ) ;
#84 = ORIENTED_EDGE ( 'NONE', *, *, #193, .F. ) ;
#85 = SECURITY_CLASSIFICATION_LEVEL ( 'unclassified' ) ;
#86 = FACE_BOUND ( 'NONE', #173, .T. ) ;
#87 = LINE ( 'NONE', #162, #123 ) ;
#88 = DIRECTION ( 'NONE',  ( 1.000000000000000000, 0.000000000000000000, -0.000000000000000000 ) ) ;
#89 = DIRECTION ( 'NONE',  ( 1.000000000000000000, 0.000000000000000000, 0.000000000000000000 ) ) ;
#90 = AXIS2_PLACEMENT_3D ( 'NONE', #243, #70, #119 ) ;
#91 =( NAMED_UNIT ( * ) PLANE_ANGLE_UNIT ( ) SI_UNIT ( $, .RADIAN. ) );
#92 = UNCERTAINTY_MEASURE_WITH_UNIT (LENGTH_MEASURE( 1.000000000000000082E-05 ), #129, 'distance_accuracy_value', 'NONE');
#93 = PERSON_AND_ORGANIZATION ( #169, #148 ) ;
#94 = DATE_AND_TIME ( #188, #48 ) ;
#95 = CYLINDRICAL_SURFACE ( 'NONE', #207, 2.600000000000000089 ) ;
#96 = AXIS2_PLACEMENT_3D ( 'NONE', #199, #182, #216 ) ;
#97 = DIRECTION ( 'NONE',  ( 1.000000000000000000, 0.000000000000000000, 0.000000000000000000 ) ) ;
#98 = ORIENTED_EDGE ( 'NONE', *, *, #61, .T. ) ;
#99 = DATE_AND_TIME ( #20, #246 ) ;
#100 = AXIS2_PLACEMENT_3D ( 'NONE', #58, #144, #204 ) ;
#101 = APPROVAL ( #248, 'NEURÈENÝ' ) ;
#102 = APPROVAL_PERSON_ORGANIZATION ( #135, #75, #53 ) ;
#103 = VERTEX_POINT ( 'NONE', #7 ) ;
#104 = EDGE_CURVE ( 'NONE', #213, #103, #87, .T. ) ;
#105 = APPROVAL_DATE_TIME ( #218, #75 ) ;
#106 = DIRECTION ( 'NONE',  ( 0.000000000000000000, 0.000000000000000000, 1.000000000000000000 ) ) ;
#107 = VECTOR ( 'NONE', #160, 1000.000000000000000 ) ;
#108 = LINE ( 'NONE', #164, #107 ) ;
#109 = EDGE_LOOP ( 'NONE', ( #44, #255, #181, #84 ) ) ;
#110 = CARTESIAN_POINT ( 'NONE',  ( 0.000000000000000000, 0.000000000000000000, 3.000000000000000000 ) ) ;
#111 = AXIS2_PLACEMENT_3D ( 'NONE', #27, #30, #202 ) ;
#112 = CARTESIAN_POINT ( 'NONE',  ( -5.000000000000000000, 0.000000000000000000, 0.000000000000000000 ) ) ;
#113 = PRODUCT_DEFINITION_FORMATION_WITH_SPECIFIED_SOURCE ( 'LIBOVOLNÝ', '', #149, .NOT_KNOWN. ) ;
#114 = COORDINATED_UNIVERSAL_TIME_OFFSET ( 1, 0, .AHEAD. ) ;
#115 = CARTESIAN_POINT ( 'NONE',  ( 5.000000000000000000, 6.123233995736766282E-16, 0.000000000000000000 ) ) ;
#116 = ORIENTED_EDGE ( 'NONE', *, *, #68, .T. ) ;
#117 = CALENDAR_DATE ( 2023, 13, 2 ) ;
#118 = CC_DESIGN_PERSON_AND_ORGANIZATION_ASSIGNMENT ( #236, #157, ( #39 ) ) ;
#119 = DIRECTION ( 'NONE',  ( -1.000000000000000000, 0.000000000000000000, 0.000000000000000000 ) ) ;
#120 = DIRECTION ( 'NONE',  ( -0.000000000000000000, -0.000000000000000000, -1.000000000000000000 ) ) ;
#121 = DATE_TIME_ROLE ( 'classification_date' ) ;
#122 = CYLINDRICAL_SURFACE ( 'NONE', #90, 2.600000000000000089 ) ;
#123 = VECTOR ( 'NONE', #4, 1000.000000000000000 ) ;
#124 = COORDINATED_UNIVERSAL_TIME_OFFSET ( 1, 0, .AHEAD. ) ;
#125 = CIRCLE ( 'NONE', #229, 5.000000000000000000 ) ;
#126 = ADVANCED_FACE ( 'NONE', ( #237 ), #49, .T. ) ;
#127 = APPLICATION_PROTOCOL_DEFINITION ( 'international standard', 'config_control_design', 1994, #163 ) ;
#128 = CIRCLE ( 'NONE', #15, 2.600000000000000089 ) ;
#129 =( LENGTH_UNIT ( ) NAMED_UNIT ( * ) SI_UNIT ( .MILLI., .METRE. ) );
#130 = CC_DESIGN_DATE_AND_TIME_ASSIGNMENT ( #69, #121, ( #39 ) ) ;
#131 = COORDINATED_UNIVERSAL_TIME_OFFSET ( 1, 0, .AHEAD. ) ;
#132 = LOCAL_TIME ( 15, 34, 59.00000000000000000, #131 ) ;
#133 = ORIENTED_EDGE ( 'NONE', *, *, #193, .T. ) ;
#134 = ORIENTED_EDGE ( 'NONE', *, *, #22, .T. ) ;
#135 = PERSON_AND_ORGANIZATION ( #169, #148 ) ;
#136 = CARTESIAN_POINT ( 'NONE',  ( 0.000000000000000000, 0.000000000000000000, 0.000000000000000000 ) ) ;
#137 = CALENDAR_DATE ( 2023, 13, 2 ) ;
#138 = APPROVAL_DATE_TIME ( #99, #6 ) ;
#139 = AXIS2_PLACEMENT_3D ( 'NONE', #208, #187, #38 ) ;
#140 = CARTESIAN_POINT ( 'NONE',  ( 0.000000000000000000, 0.000000000000000000, 3.000000000000000000 ) ) ;
#141 = CARTESIAN_POINT ( 'NONE',  ( -2.600000000000000089, 0.000000000000000000, 315.0000000000000000 ) ) ;
#142 = ADVANCED_FACE ( 'NONE', ( #54 ), #209, .F. ) ;
#143 = PLANE ( 'NONE',  #196 ) ;
#144 = DIRECTION ( 'NONE',  ( 0.000000000000000000, 0.000000000000000000, 1.000000000000000000 ) ) ;
#145 = PERSON_AND_ORGANIZATION_ROLE ( 'design_owner' ) ;
#146 = DIRECTION ( 'NONE',  ( -1.000000000000000000, 0.000000000000000000, 0.000000000000000000 ) ) ;
#147 = DIRECTION ( 'NONE',  ( -1.000000000000000000, 0.000000000000000000, 0.000000000000000000 ) ) ;
#148 = ORGANIZATION ( 'NEURÈENÝ', 'NEURÈENÝ', '' ) ;
#149 = PRODUCT ( 'f71d', 'f71d', '', ( #56 ) ) ;
#150 = CC_DESIGN_PERSON_AND_ORGANIZATION_ASSIGNMENT ( #83, #159, ( #113 ) ) ;
#151 = ORIENTED_EDGE ( 'NONE', *, *, #104, .F. ) ;
#152 = EDGE_LOOP ( 'NONE', ( #151, #194, #134, #65 ) ) ;
#153 = CC_DESIGN_PERSON_AND_ORGANIZATION_ASSIGNMENT ( #93, #145, ( #149 ) ) ;
#154 = ORIENTED_EDGE ( 'NONE', *, *, #12, .F. ) ;
#155 = COORDINATED_UNIVERSAL_TIME_OFFSET ( 1, 0, .AHEAD. ) ;
#156 = EDGE_LOOP ( 'NONE', ( #254, #25, #133, #98 ) ) ;
#157 = PERSON_AND_ORGANIZATION_ROLE ( 'classification_officer' ) ;
#158 = CARTESIAN_POINT ( 'NONE',  ( 0.000000000000000000, 0.000000000000000000, 315.0000000000000000 ) ) ;
#159 = PERSON_AND_ORGANIZATION_ROLE ( 'design_supplier' ) ;
#160 = DIRECTION ( 'NONE',  ( -0.000000000000000000, -0.000000000000000000, -1.000000000000000000 ) ) ;
#161 =( GEOMETRIC_REPRESENTATION_CONTEXT ( 3 ) GLOBAL_UNCERTAINTY_ASSIGNED_CONTEXT ( ( #92 ) ) GLOBAL_UNIT_ASSIGNED_CONTEXT ( ( #129, #91, #166 ) ) REPRESENTATION_CONTEXT ( 'NONE', 'WORKASPACE' ) );
#162 = CARTESIAN_POINT ( 'NONE',  ( 2.600000000000000089, 3.184081677783118191E-16, 315.0000000000000000 ) ) ;
#163 = APPLICATION_CONTEXT ( 'configuration controlled 3d designs of mechanical parts and assemblies' ) ;
#164 = CARTESIAN_POINT ( 'NONE',  ( 5.000000000000000000, 6.123233995736766282E-16, 3.000000000000000000 ) ) ;
#165 = CARTESIAN_POINT ( 'NONE',  ( -5.000000000000000000, 0.000000000000000000, 3.000000000000000000 ) ) ;
#166 =( NAMED_UNIT ( * ) SI_UNIT ( $, .STERADIAN. ) SOLID_ANGLE_UNIT ( ) );
#167 = EDGE_CURVE ( 'NONE', #1, #232, #2, .T. ) ;
#168 = PERSON_AND_ORGANIZATION ( #169, #148 ) ;
#169 = PERSON ( 'NEURÈENÝ', 'NEURÈENÝ', 'NEURÈENÝ', ('NEURÈENÝ'), ('NEURÈENÝ'), ('NEURÈENÝ') ) ;
#170 = APPROVAL_DATE_TIME ( #94, #101 ) ;
#171 = CIRCLE ( 'NONE', #250, 2.600000000000000089 ) ;
#172 = CYLINDRICAL_SURFACE ( 'NONE', #55, 5.000000000000000000 ) ;
#173 = EDGE_LOOP ( 'NONE', ( #231, #179 ) ) ;
#174 = ORIENTED_EDGE ( 'NONE', *, *, #45, .T. ) ;
#175 = CC_DESIGN_APPROVAL ( #75, ( #39 ) ) ;
#176 = ORIENTED_EDGE ( 'NONE', *, *, #167, .T. ) ;
#177 = PERSON_AND_ORGANIZATION ( #169, #148 ) ;
#178 = VERTEX_POINT ( 'NONE', #115 ) ;
#179 = ORIENTED_EDGE ( 'NONE', *, *, #45, .F. ) ;
#180 = CARTESIAN_POINT ( 'NONE',  ( 0.000000000000000000, 0.000000000000000000, 315.0000000000000000 ) ) ;
#181 = ORIENTED_EDGE ( 'NONE', *, *, #71, .T. ) ;
#182 = DIRECTION ( 'NONE',  ( 0.000000000000000000, 0.000000000000000000, 1.000000000000000000 ) ) ;
#183 = LOCAL_TIME ( 15, 34, 59.00000000000000000, #241 ) ;
#184 = DIRECTION ( 'NONE',  ( 1.000000000000000000, 0.000000000000000000, 0.000000000000000000 ) ) ;
#185 = FACE_OUTER_BOUND ( 'NONE', #152, .T. ) ;
#186 = APPLICATION_PROTOCOL_DEFINITION ( 'international standard', 'config_control_design', 1994, #197 ) ;
#187 = DIRECTION ( 'NONE',  ( 0.000000000000000000, 0.000000000000000000, 1.000000000000000000 ) ) ;
#188 = CALENDAR_DATE ( 2023, 13, 2 ) ;
#189 = CARTESIAN_POINT ( 'NONE',  ( 5.000000000000000000, 6.123233995736766282E-16, 3.000000000000000000 ) ) ;
#190 = CIRCLE ( 'NONE', #21, 5.000000000000000000 ) ;
#191 = DATE_AND_TIME ( #117, #132 ) ;
#192 = ORIENTED_EDGE ( 'NONE', *, *, #71, .F. ) ;
#193 = EDGE_CURVE ( 'NONE', #1, #252, #40, .T. ) ;
#194 = ORIENTED_EDGE ( 'NONE', *, *, #68, .F. ) ;
#195 = PLANE ( 'NONE',  #245 ) ;
#196 = AXIS2_PLACEMENT_3D ( 'NONE', #219, #244, #72 ) ;
#197 = APPLICATION_CONTEXT ( 'configuration controlled 3d designs of mechanical parts and assemblies' ) ;
#198 = MANIFOLD_SOLID_BREP ( 'Pøidat vysunutím3', #50 ) ;
#199 = CARTESIAN_POINT ( 'NONE',  ( 0.000000000000000000, 0.000000000000000000, 0.000000000000000000 ) ) ;
#200 = PRODUCT_DEFINITION ( 'NEZNÁMÝ', '', #113, #57 ) ;
#201 = CARTESIAN_POINT ( 'NONE',  ( 0.000000000000000000, 0.000000000000000000, 315.0000000000000000 ) ) ;
#202 = DIRECTION ( 'NONE',  ( 1.000000000000000000, 0.000000000000000000, 0.000000000000000000 ) ) ;
#203 = DIRECTION ( 'NONE',  ( 1.000000000000000000, 0.000000000000000000, 0.000000000000000000 ) ) ;
#204 = DIRECTION ( 'NONE',  ( 1.000000000000000000, 0.000000000000000000, 0.000000000000000000 ) ) ;
#205 = VECTOR ( 'NONE', #120, 1000.000000000000000 ) ;
#206 = DIRECTION ( 'NONE',  ( -0.000000000000000000, -0.000000000000000000, -1.000000000000000000 ) ) ;
#207 = AXIS2_PLACEMENT_3D ( 'NONE', #36, #206, #147 ) ;
#208 = CARTESIAN_POINT ( 'NONE',  ( 0.000000000000000000, 0.000000000000000000, 0.000000000000000000 ) ) ;
#209 = PLANE ( 'NONE',  #139 ) ;
#210 = ADVANCED_FACE ( 'NONE', ( #16 ), #95, .T. ) ;
#211 = PRODUCT_RELATED_PRODUCT_CATEGORY ( 'detail', '', ( #149 ) ) ;
#212 = APPROVAL_ROLE ( '' ) ;
#213 = VERTEX_POINT ( 'NONE', #59 ) ;
#214 = PRODUCT_DEFINITION_SHAPE ( 'NONE', 'NONE',  #200 ) ;
#215 = ORIENTED_EDGE ( 'NONE', *, *, #61, .F. ) ;
#216 = DIRECTION ( 'NONE',  ( 1.000000000000000000, 0.000000000000000000, 0.000000000000000000 ) ) ;
#217 = EDGE_CURVE ( 'NONE', #230, #103, #128, .T. ) ;
#218 = DATE_AND_TIME ( #137, #63 ) ;
#219 = CARTESIAN_POINT ( 'NONE',  ( 0.000000000000000000, 0.000000000000000000, 3.000000000000000000 ) ) ;
#220 = CC_DESIGN_APPROVAL ( #101, ( #200 ) ) ;
#221 = ADVANCED_FACE ( 'NONE', ( #41 ), #172, .T. ) ;
#222 = DIRECTION ( 'NONE',  ( 0.000000000000000000, 0.000000000000000000, 1.000000000000000000 ) ) ;
#223 = CARTESIAN_POINT ( 'NONE',  ( -2.600000000000000089, 0.000000000000000000, 315.0000000000000000 ) ) ;
#224 = PERSON_AND_ORGANIZATION ( #169, #148 ) ;
#225 = DIRECTION ( 'NONE',  ( -1.000000000000000000, 0.000000000000000000, 0.000000000000000000 ) ) ;
#226 = AXIS2_PLACEMENT_3D ( 'NONE', #18, #227, #228 ) ;
#227 = DIRECTION ( 'NONE',  ( 0.000000000000000000, 0.000000000000000000, 1.000000000000000000 ) ) ;
#228 = DIRECTION ( 'NONE',  ( 1.000000000000000000, 0.000000000000000000, 0.000000000000000000 ) ) ;
#229 = AXIS2_PLACEMENT_3D ( 'NONE', #140, #106, #51 ) ;
#230 = VERTEX_POINT ( 'NONE', #247 ) ;
#231 = ORIENTED_EDGE ( 'NONE', *, *, #217, .F. ) ;
#232 = VERTEX_POINT ( 'NONE', #189 ) ;
#233 = APPROVAL_STATUS ( 'not_yet_approved' ) ;
#234 = CALENDAR_DATE ( 2023, 13, 2 ) ;
#235 = ORIENTED_EDGE ( 'NONE', *, *, #42, .T. ) ;
#236 = PERSON_AND_ORGANIZATION ( #169, #148 ) ;
#237 = FACE_OUTER_BOUND ( 'NONE', #156, .T. ) ;
#238 = FACE_OUTER_BOUND ( 'NONE', #64, .T. ) ;
#239 = CC_DESIGN_PERSON_AND_ORGANIZATION_ASSIGNMENT ( #224, #73, ( #113 ) ) ;
#240 = AXIS2_PLACEMENT_3D ( 'NONE', #242, #74, #225 ) ;
#241 = COORDINATED_UNIVERSAL_TIME_OFFSET ( 1, 0, .AHEAD. ) ;
#242 = CARTESIAN_POINT ( 'NONE',  ( 0.000000000000000000, 0.000000000000000000, 3.000000000000000000 ) ) ;
#243 = CARTESIAN_POINT ( 'NONE',  ( 0.000000000000000000, 0.000000000000000000, 315.0000000000000000 ) ) ;
#244 = DIRECTION ( 'NONE',  ( 0.000000000000000000, 0.000000000000000000, 1.000000000000000000 ) ) ;
#245 = AXIS2_PLACEMENT_3D ( 'NONE', #158, #11, #88 ) ;
#246 = LOCAL_TIME ( 15, 34, 59.00000000000000000, #155 ) ;
#247 = CARTESIAN_POINT ( 'NONE',  ( -2.600000000000000089, 0.000000000000000000, 3.000000000000000000 ) ) ;
#248 = APPROVAL_STATUS ( 'not_yet_approved' ) ;
#249 = CARTESIAN_POINT ( 'NONE',  ( 0.000000000000000000, 0.000000000000000000, 3.000000000000000000 ) ) ;
#250 = AXIS2_PLACEMENT_3D ( 'NONE', #180, #222, #89 ) ;
#251 = APPROVAL_PERSON_ORGANIZATION ( #168, #101, #17 ) ;
#252 = VERTEX_POINT ( 'NONE', #112 ) ;
#253 = CC_DESIGN_APPROVAL ( #6, ( #113 ) ) ;
#254 = ORIENTED_EDGE ( 'NONE', *, *, #34, .F. ) ;
#255 = ORIENTED_EDGE ( 'NONE', *, *, #34, .T. ) ;
ENDSEC;
END-ISO-10303-21;
