ISO-10303-21;
HEADER;
FILE_DESCRIPTION (( 'STEP AP203' ),
    '1' );
FILE_NAME ('31c6.STEP',
    '2023-02-13T12:54:12',
    ( '' ),
    ( '' ),
    'SwSTEP 2.0',
    'SolidWorks 2019',
    '' );
FILE_SCHEMA (( 'CONFIG_CONTROL_DESIGN' ));
ENDSEC;

DATA;
#1 = ORIENTED_EDGE ( 'NONE', *, *, #171, .T. ) ;
#2 = ORIENTED_EDGE ( 'NONE', *, *, #15, .T. ) ;
#3 = ORIENTED_EDGE ( 'NONE', *, *, #245, .T. ) ;
#4 = CIRCLE ( 'NONE', #242, 4.099999999999999645 ) ;
#5 = PERSON_AND_ORGANIZATION_ROLE ( 'design_owner' ) ;
#6 = DIRECTION ( 'NONE',  ( 0.000000000000000000, 0.000000000000000000, 1.000000000000000000 ) ) ;
#7 = APPLICATION_CONTEXT ( 'configuration controlled 3d designs of mechanical parts and assemblies' ) ;
#8 = APPROVAL ( #128, 'NEURÈENÝ' ) ;
#9 = FACE_OUTER_BOUND ( 'NONE', #237, .T. ) ;
#10 = CARTESIAN_POINT ( 'NONE',  ( 7.000000000000000000, 8.572527594031473190E-16, 5.000000000000000000 ) ) ;
#11 = SECURITY_CLASSIFICATION_LEVEL ( 'unclassified' ) ;
#12 = DIRECTION ( 'NONE',  ( 1.000000000000000000, 0.000000000000000000, 0.000000000000000000 ) ) ;
#13 = PERSON_AND_ORGANIZATION_ROLE ( 'creator' ) ;
#14 = ORIENTED_EDGE ( 'NONE', *, *, #183, .T. ) ;
#15 = EDGE_CURVE ( 'NONE', #110, #35, #152, .T. ) ;
#16 = CIRCLE ( 'NONE', #173, 4.099999999999999645 ) ;
#17 = DIRECTION ( 'NONE',  ( 1.000000000000000000, 0.000000000000000000, -0.000000000000000000 ) ) ;
#18 = EDGE_CURVE ( 'NONE', #160, #233, #63, .T. ) ;
#19 = EDGE_LOOP ( 'NONE', ( #208, #36, #92, #79 ) ) ;
#20 = DIRECTION ( 'NONE',  ( -0.000000000000000000, -0.000000000000000000, -1.000000000000000000 ) ) ;
#21 = VECTOR ( 'NONE', #87, 1000.000000000000000 ) ;
#22 =( NAMED_UNIT ( * ) PLANE_ANGLE_UNIT ( ) SI_UNIT ( $, .RADIAN. ) );
#23 = PRODUCT_DEFINITION_SHAPE ( 'NONE', 'NONE',  #252 ) ;
#24 = CARTESIAN_POINT ( 'NONE',  ( -4.099999999999999645, 0.000000000000000000, 315.0000000000000000 ) ) ;
#25 = APPROVAL_DATE_TIME ( #103, #138 ) ;
#26 = LINE ( 'NONE', #10, #21 ) ;
#27 = EDGE_CURVE ( 'NONE', #35, #199, #221, .T. ) ;
#28 = CARTESIAN_POINT ( 'NONE',  ( 0.000000000000000000, 0.000000000000000000, 5.000000000000000000 ) ) ;
#29 = CALENDAR_DATE ( 2023, 13, 2 ) ;
#30 = CARTESIAN_POINT ( 'NONE',  ( 0.000000000000000000, 0.000000000000000000, 5.000000000000000000 ) ) ;
#31 = APPROVAL_PERSON_ORGANIZATION ( #67, #8, #52 ) ;
#32 = CC_DESIGN_PERSON_AND_ORGANIZATION_ASSIGNMENT ( #187, #13, ( #74 ) ) ;
#33 = CIRCLE ( 'NONE', #75, 7.000000000000000000 ) ;
#34 = APPROVAL_PERSON_ORGANIZATION ( #44, #138, #206 ) ;
#35 = VERTEX_POINT ( 'NONE', #24 ) ;
#36 = ORIENTED_EDGE ( 'NONE', *, *, #121, .T. ) ;
#37 = CC_DESIGN_APPROVAL ( #138, ( #55 ) ) ;
#38 = CALENDAR_DATE ( 2023, 13, 2 ) ;
#39 = PLANE ( 'NONE',  #175 ) ;
#40 = DIRECTION ( 'NONE',  ( 0.000000000000000000, 0.000000000000000000, 1.000000000000000000 ) ) ;
#41 = CARTESIAN_POINT ( 'NONE',  ( 7.000000000000000000, 8.572527594031473190E-16, 0.000000000000000000 ) ) ;
#42 = PRODUCT_RELATED_PRODUCT_CATEGORY ( 'detail', '', ( #99 ) ) ;
#43 = CARTESIAN_POINT ( 'NONE',  ( 0.000000000000000000, 0.000000000000000000, 315.0000000000000000 ) ) ;
#44 = PERSON_AND_ORGANIZATION ( #131, #64 ) ;
#45 = CARTESIAN_POINT ( 'NONE',  ( 0.000000000000000000, 0.000000000000000000, 0.000000000000000000 ) ) ;
#46 = PERSON_AND_ORGANIZATION_ROLE ( 'design_supplier' ) ;
#47 = DIRECTION ( 'NONE',  ( -0.000000000000000000, -0.000000000000000000, -1.000000000000000000 ) ) ;
#48 = CIRCLE ( 'NONE', #62, 7.000000000000000000 ) ;
#49 = COORDINATED_UNIVERSAL_TIME_OFFSET ( 1, 0, .AHEAD. ) ;
#50 = AXIS2_PLACEMENT_3D ( 'NONE', #105, #155, #188 ) ;
#51 = CARTESIAN_POINT ( 'NONE',  ( 4.099999999999999645, 5.021051876504147385E-16, 5.000000000000000000 ) ) ;
#52 = APPROVAL_ROLE ( '' ) ;
#53 = CC_DESIGN_DATE_AND_TIME_ASSIGNMENT ( #246, #241, ( #252 ) ) ;
#54 = AXIS2_PLACEMENT_3D ( 'NONE', #30, #153, #111 ) ;
#55 = SECURITY_CLASSIFICATION ( '', '', #11 ) ;
#56 = DIRECTION ( 'NONE',  ( -0.000000000000000000, -0.000000000000000000, -1.000000000000000000 ) ) ;
#57 = ORIENTED_EDGE ( 'NONE', *, *, #121, .F. ) ;
#58 =( LENGTH_UNIT ( ) NAMED_UNIT ( * ) SI_UNIT ( .MILLI., .METRE. ) );
#59 = EDGE_LOOP ( 'NONE', ( #253, #194, #14, #170 ) ) ;
#60 = APPROVAL_STATUS ( 'not_yet_approved' ) ;
#61 = DIRECTION ( 'NONE',  ( 0.000000000000000000, 0.000000000000000000, 1.000000000000000000 ) ) ;
#62 = AXIS2_PLACEMENT_3D ( 'NONE', #45, #123, #205 ) ;
#63 = LINE ( 'NONE', #148, #127 ) ;
#64 = ORGANIZATION ( 'NEURÈENÝ', 'NEURÈENÝ', '' ) ;
#65 = COORDINATED_UNIVERSAL_TIME_OFFSET ( 1, 0, .AHEAD. ) ;
#66 = DIRECTION ( 'NONE',  ( 1.000000000000000000, 0.000000000000000000, -0.000000000000000000 ) ) ;
#67 = PERSON_AND_ORGANIZATION ( #131, #64 ) ;
#68 = CARTESIAN_POINT ( 'NONE',  ( 0.000000000000000000, 0.000000000000000000, 0.000000000000000000 ) ) ;
#69 = ADVANCED_FACE ( 'NONE', ( #146 ), #98, .T. ) ;
#70 = CALENDAR_DATE ( 2023, 13, 2 ) ;
#71 = CARTESIAN_POINT ( 'NONE',  ( 0.000000000000000000, 0.000000000000000000, 315.0000000000000000 ) ) ;
#72 = DIRECTION ( 'NONE',  ( -1.000000000000000000, 0.000000000000000000, 0.000000000000000000 ) ) ;
#73 = CARTESIAN_POINT ( 'NONE',  ( -7.000000000000000000, 0.000000000000000000, 5.000000000000000000 ) ) ;
#74 = PRODUCT_DEFINITION_FORMATION_WITH_SPECIFIED_SOURCE ( 'LIBOVOLNÝ', '', #99, .NOT_KNOWN. ) ;
#75 = AXIS2_PLACEMENT_3D ( 'NONE', #255, #40, #76 ) ;
#76 = DIRECTION ( 'NONE',  ( 1.000000000000000000, 0.000000000000000000, 0.000000000000000000 ) ) ;
#77 = ADVANCED_FACE ( 'NONE', ( #117 ), #102, .F. ) ;
#78 = EDGE_LOOP ( 'NONE', ( #136, #2 ) ) ;
#79 = ORIENTED_EDGE ( 'NONE', *, *, #18, .F. ) ;
#80 = DIRECTION ( 'NONE',  ( -1.000000000000000000, 0.000000000000000000, 0.000000000000000000 ) ) ;
#81 = ORIENTED_EDGE ( 'NONE', *, *, #245, .F. ) ;
#82 = DIRECTION ( 'NONE',  ( 1.000000000000000000, 0.000000000000000000, 0.000000000000000000 ) ) ;
#83 = PERSON_AND_ORGANIZATION ( #131, #64 ) ;
#84 = ADVANCED_FACE ( 'NONE', ( #184, #9 ), #39, .T. ) ;
#85 = AXIS2_PLACEMENT_3D ( 'NONE', #225, #129, #229 ) ;
#86 = DIRECTION ( 'NONE',  ( 0.000000000000000000, 0.000000000000000000, 1.000000000000000000 ) ) ;
#87 = DIRECTION ( 'NONE',  ( -0.000000000000000000, -0.000000000000000000, -1.000000000000000000 ) ) ;
#88 =( GEOMETRIC_REPRESENTATION_CONTEXT ( 3 ) GLOBAL_UNCERTAINTY_ASSIGNED_CONTEXT ( ( #130 ) ) GLOBAL_UNIT_ASSIGNED_CONTEXT ( ( #58, #22, #97 ) ) REPRESENTATION_CONTEXT ( 'NONE', 'WORKASPACE' ) );
#89 = CC_DESIGN_APPROVAL ( #207, ( #252 ) ) ;
#90 = CC_DESIGN_PERSON_AND_ORGANIZATION_ASSIGNMENT ( #83, #151, ( #252 ) ) ;
#91 = LOCAL_TIME ( 13, 54, 12.00000000000000000, #172 ) ;
#92 = ORIENTED_EDGE ( 'NONE', *, *, #116, .T. ) ;
#93 = PERSON_AND_ORGANIZATION ( #131, #64 ) ;
#94 = MECHANICAL_CONTEXT ( 'NONE', #95, 'mechanical' ) ;
#95 = APPLICATION_CONTEXT ( 'configuration controlled 3d designs of mechanical parts and assemblies' ) ;
#96 = CYLINDRICAL_SURFACE ( 'NONE', #201, 4.099999999999999645 ) ;
#97 =( NAMED_UNIT ( * ) SI_UNIT ( $, .STERADIAN. ) SOLID_ANGLE_UNIT ( ) );
#98 = CYLINDRICAL_SURFACE ( 'NONE', #118, 4.099999999999999645 ) ;
#99 = PRODUCT ( '31c6', '31c6', '', ( #94 ) ) ;
#100 = DIRECTION ( 'NONE',  ( -0.000000000000000000, -0.000000000000000000, -1.000000000000000000 ) ) ;
#101 = CC_DESIGN_PERSON_AND_ORGANIZATION_ASSIGNMENT ( #93, #5, ( #99 ) ) ;
#102 = PLANE ( 'NONE',  #254 ) ;
#103 = DATE_AND_TIME ( #29, #251 ) ;
#104 = DATE_TIME_ROLE ( 'classification_date' ) ;
#105 = CARTESIAN_POINT ( 'NONE',  ( 0.000000000000000000, 0.000000000000000000, 0.000000000000000000 ) ) ;
#106 = ORIENTED_EDGE ( 'NONE', *, *, #183, .F. ) ;
#107 = CARTESIAN_POINT ( 'NONE',  ( -4.099999999999999645, 0.000000000000000000, 5.000000000000000000 ) ) ;
#108 = AXIS2_PLACEMENT_3D ( 'NONE', #134, #56, #135 ) ;
#109 = CC_DESIGN_APPROVAL ( #8, ( #74 ) ) ;
#110 = VERTEX_POINT ( 'NONE', #149 ) ;
#111 = DIRECTION ( 'NONE',  ( 1.000000000000000000, 0.000000000000000000, 0.000000000000000000 ) ) ;
#112 = EDGE_LOOP ( 'NONE', ( #235, #159, #113, #137 ) ) ;
#113 = ORIENTED_EDGE ( 'NONE', *, *, #27, .T. ) ;
#114 = DATE_AND_TIME ( #38, #214 ) ;
#115 = PLANE ( 'NONE',  #189 ) ;
#116 = EDGE_CURVE ( 'NONE', #213, #233, #48, .T. ) ;
#117 = FACE_OUTER_BOUND ( 'NONE', #196, .T. ) ;
#118 = AXIS2_PLACEMENT_3D ( 'NONE', #43, #100, #203 ) ;
#119 = CARTESIAN_POINT ( 'NONE',  ( -7.000000000000000000, 0.000000000000000000, 0.000000000000000000 ) ) ;
#120 = EDGE_LOOP ( 'NONE', ( #158, #106 ) ) ;
#121 = EDGE_CURVE ( 'NONE', #144, #213, #26, .T. ) ;
#122 = ADVANCED_BREP_SHAPE_REPRESENTATION ( '31c6', ( #230, #176 ), #88 ) ;
#123 = DIRECTION ( 'NONE',  ( 0.000000000000000000, 0.000000000000000000, 1.000000000000000000 ) ) ;
#124 = DESIGN_CONTEXT ( 'detailed design', #7, 'design' ) ;
#125 = ADVANCED_FACE ( 'NONE', ( #168 ), #244, .T. ) ;
#126 = PERSON_AND_ORGANIZATION_ROLE ( 'classification_officer' ) ;
#127 = VECTOR ( 'NONE', #47, 1000.000000000000000 ) ;
#128 = APPROVAL_STATUS ( 'not_yet_approved' ) ;
#129 = DIRECTION ( 'NONE',  ( 0.000000000000000000, 0.000000000000000000, 1.000000000000000000 ) ) ;
#130 = UNCERTAINTY_MEASURE_WITH_UNIT (LENGTH_MEASURE( 1.000000000000000082E-05 ), #58, 'distance_accuracy_value', 'NONE');
#131 = PERSON ( 'NEURÈENÝ', 'NEURÈENÝ', 'NEURÈENÝ', ('NEURÈENÝ'), ('NEURÈENÝ'), ('NEURÈENÝ') ) ;
#132 = DATE_AND_TIME ( #222, #91 ) ;
#133 = AXIS2_PLACEMENT_3D ( 'NONE', #150, #223, #72 ) ;
#134 = CARTESIAN_POINT ( 'NONE',  ( 0.000000000000000000, 0.000000000000000000, 5.000000000000000000 ) ) ;
#135 = DIRECTION ( 'NONE',  ( -1.000000000000000000, 0.000000000000000000, 0.000000000000000000 ) ) ;
#136 = ORIENTED_EDGE ( 'NONE', *, *, #162, .T. ) ;
#137 = ORIENTED_EDGE ( 'NONE', *, *, #211, .T. ) ;
#138 = APPROVAL ( #204, 'NEURÈENÝ' ) ;
#139 = EDGE_LOOP ( 'NONE', ( #57, #81, #140, #216 ) ) ;
#140 = ORIENTED_EDGE ( 'NONE', *, *, #18, .T. ) ;
#141 = CLOSED_SHELL ( 'NONE', ( #69, #125, #198, #84, #77, #227, #232 ) ) ;
#142 = APPLICATION_PROTOCOL_DEFINITION ( 'international standard', 'config_control_design', 1994, #95 ) ;
#143 = PERSON_AND_ORGANIZATION ( #131, #64 ) ;
#144 = VERTEX_POINT ( 'NONE', #157 ) ;
#145 = LINE ( 'NONE', #217, #180 ) ;
#146 = FACE_OUTER_BOUND ( 'NONE', #59, .T. ) ;
#147 = CIRCLE ( 'NONE', #50, 7.000000000000000000 ) ;
#148 = CARTESIAN_POINT ( 'NONE',  ( -7.000000000000000000, 0.000000000000000000, 5.000000000000000000 ) ) ;
#149 = CARTESIAN_POINT ( 'NONE',  ( 4.099999999999999645, 5.021051876504147385E-16, 315.0000000000000000 ) ) ;
#150 = CARTESIAN_POINT ( 'NONE',  ( 0.000000000000000000, 0.000000000000000000, 5.000000000000000000 ) ) ;
#151 = PERSON_AND_ORGANIZATION_ROLE ( 'creator' ) ;
#152 = CIRCLE ( 'NONE', #212, 4.099999999999999645 ) ;
#153 = DIRECTION ( 'NONE',  ( 0.000000000000000000, 0.000000000000000000, 1.000000000000000000 ) ) ;
#154 = DIRECTION ( 'NONE',  ( 0.000000000000000000, 0.000000000000000000, 1.000000000000000000 ) ) ;
#155 = DIRECTION ( 'NONE',  ( 0.000000000000000000, 0.000000000000000000, 1.000000000000000000 ) ) ;
#156 = VECTOR ( 'NONE', #219, 1000.000000000000000 ) ;
#157 = CARTESIAN_POINT ( 'NONE',  ( 7.000000000000000000, 8.572527594031473190E-16, 5.000000000000000000 ) ) ;
#158 = ORIENTED_EDGE ( 'NONE', *, *, #211, .F. ) ;
#159 = ORIENTED_EDGE ( 'NONE', *, *, #162, .F. ) ;
#160 = VERTEX_POINT ( 'NONE', #73 ) ;
#161 = CARTESIAN_POINT ( 'NONE',  ( 0.000000000000000000, 0.000000000000000000, 0.000000000000000000 ) ) ;
#162 = EDGE_CURVE ( 'NONE', #35, #110, #16, .T. ) ;
#163 = APPROVAL_ROLE ( '' ) ;
#164 = CIRCLE ( 'NONE', #54, 7.000000000000000000 ) ;
#165 = APPROVAL_DATE_TIME ( #132, #8 ) ;
#166 = DIRECTION ( 'NONE',  ( 1.000000000000000000, 0.000000000000000000, -0.000000000000000000 ) ) ;
#167 = CC_DESIGN_SECURITY_CLASSIFICATION ( #55, ( #74 ) ) ;
#168 = FACE_OUTER_BOUND ( 'NONE', #19, .T. ) ;
#169 = PERSON_AND_ORGANIZATION ( #131, #64 ) ;
#170 = ORIENTED_EDGE ( 'NONE', *, *, #27, .F. ) ;
#171 = EDGE_CURVE ( 'NONE', #144, #160, #164, .T. ) ;
#172 = COORDINATED_UNIVERSAL_TIME_OFFSET ( 1, 0, .AHEAD. ) ;
#173 = AXIS2_PLACEMENT_3D ( 'NONE', #71, #154, #210 ) ;
#174 = CARTESIAN_POINT ( 'NONE',  ( 0.000000000000000000, 0.000000000000000000, 5.000000000000000000 ) ) ;
#175 = AXIS2_PLACEMENT_3D ( 'NONE', #28, #181, #166 ) ;
#176 = AXIS2_PLACEMENT_3D ( 'NONE', #161, #6, #82 ) ;
#177 = LOCAL_TIME ( 13, 54, 12.00000000000000000, #226 ) ;
#178 = VERTEX_POINT ( 'NONE', #51 ) ;
#179 = ORIENTED_EDGE ( 'NONE', *, *, #116, .F. ) ;
#180 = VECTOR ( 'NONE', #20, 1000.000000000000000 ) ;
#181 = DIRECTION ( 'NONE',  ( 0.000000000000000000, 0.000000000000000000, 1.000000000000000000 ) ) ;
#182 = CC_DESIGN_PERSON_AND_ORGANIZATION_ASSIGNMENT ( #169, #126, ( #55 ) ) ;
#183 = EDGE_CURVE ( 'NONE', #178, #199, #193, .T. ) ;
#184 = FACE_BOUND ( 'NONE', #120, .T. ) ;
#185 = CARTESIAN_POINT ( 'NONE',  ( -4.099999999999999645, 0.000000000000000000, 315.0000000000000000 ) ) ;
#186 = CARTESIAN_POINT ( 'NONE',  ( 0.000000000000000000, 0.000000000000000000, 315.0000000000000000 ) ) ;
#187 = PERSON_AND_ORGANIZATION ( #131, #64 ) ;
#188 = DIRECTION ( 'NONE',  ( 1.000000000000000000, 0.000000000000000000, 0.000000000000000000 ) ) ;
#189 = AXIS2_PLACEMENT_3D ( 'NONE', #236, #61, #17 ) ;
#190 = CC_DESIGN_DATE_AND_TIME_ASSIGNMENT ( #220, #104, ( #55 ) ) ;
#191 = EDGE_CURVE ( 'NONE', #233, #213, #147, .T. ) ;
#192 = ORIENTED_EDGE ( 'NONE', *, *, #191, .F. ) ;
#193 = CIRCLE ( 'NONE', #85, 4.099999999999999645 ) ;
#194 = ORIENTED_EDGE ( 'NONE', *, *, #248, .T. ) ;
#195 = CC_DESIGN_PERSON_AND_ORGANIZATION_ASSIGNMENT ( #224, #46, ( #74 ) ) ;
#196 = EDGE_LOOP ( 'NONE', ( #192, #179 ) ) ;
#197 = APPROVAL_DATE_TIME ( #114, #207 ) ;
#198 = ADVANCED_FACE ( 'NONE', ( #228 ), #249, .T. ) ;
#199 = VERTEX_POINT ( 'NONE', #107 ) ;
#200 = FACE_OUTER_BOUND ( 'NONE', #78, .T. ) ;
#201 = AXIS2_PLACEMENT_3D ( 'NONE', #218, #234, #80 ) ;
#202 = APPROVAL_PERSON_ORGANIZATION ( #143, #207, #163 ) ;
#203 = DIRECTION ( 'NONE',  ( -1.000000000000000000, 0.000000000000000000, 0.000000000000000000 ) ) ;
#204 = APPROVAL_STATUS ( 'not_yet_approved' ) ;
#205 = DIRECTION ( 'NONE',  ( 1.000000000000000000, 0.000000000000000000, 0.000000000000000000 ) ) ;
#206 = APPROVAL_ROLE ( '' ) ;
#207 = APPROVAL ( #60, 'NEURÈENÝ' ) ;
#208 = ORIENTED_EDGE ( 'NONE', *, *, #171, .F. ) ;
#209 = SHAPE_DEFINITION_REPRESENTATION ( #23, #122 ) ;
#210 = DIRECTION ( 'NONE',  ( 1.000000000000000000, 0.000000000000000000, 0.000000000000000000 ) ) ;
#211 = EDGE_CURVE ( 'NONE', #199, #178, #4, .T. ) ;
#212 = AXIS2_PLACEMENT_3D ( 'NONE', #186, #239, #12 ) ;
#213 = VERTEX_POINT ( 'NONE', #41 ) ;
#214 = LOCAL_TIME ( 13, 54, 12.00000000000000000, #215 ) ;
#215 = COORDINATED_UNIVERSAL_TIME_OFFSET ( 1, 0, .AHEAD. ) ;
#216 = ORIENTED_EDGE ( 'NONE', *, *, #191, .T. ) ;
#217 = CARTESIAN_POINT ( 'NONE',  ( 4.099999999999999645, 5.021051876504147385E-16, 315.0000000000000000 ) ) ;
#218 = CARTESIAN_POINT ( 'NONE',  ( 0.000000000000000000, 0.000000000000000000, 315.0000000000000000 ) ) ;
#219 = DIRECTION ( 'NONE',  ( -0.000000000000000000, -0.000000000000000000, -1.000000000000000000 ) ) ;
#220 = DATE_AND_TIME ( #70, #247 ) ;
#221 = LINE ( 'NONE', #185, #156 ) ;
#222 = CALENDAR_DATE ( 2023, 13, 2 ) ;
#223 = DIRECTION ( 'NONE',  ( -0.000000000000000000, -0.000000000000000000, -1.000000000000000000 ) ) ;
#224 = PERSON_AND_ORGANIZATION ( #131, #64 ) ;
#225 = CARTESIAN_POINT ( 'NONE',  ( 0.000000000000000000, 0.000000000000000000, 5.000000000000000000 ) ) ;
#226 = COORDINATED_UNIVERSAL_TIME_OFFSET ( 1, 0, .AHEAD. ) ;
#227 = ADVANCED_FACE ( 'NONE', ( #238 ), #96, .T. ) ;
#228 = FACE_OUTER_BOUND ( 'NONE', #139, .T. ) ;
#229 = DIRECTION ( 'NONE',  ( 1.000000000000000000, 0.000000000000000000, 0.000000000000000000 ) ) ;
#230 = MANIFOLD_SOLID_BREP ( 'Pøidat vysunutím3', #141 ) ;
#231 = DIRECTION ( 'NONE',  ( 1.000000000000000000, 0.000000000000000000, 0.000000000000000000 ) ) ;
#232 = ADVANCED_FACE ( 'NONE', ( #200 ), #115, .T. ) ;
#233 = VERTEX_POINT ( 'NONE', #119 ) ;
#234 = DIRECTION ( 'NONE',  ( -0.000000000000000000, -0.000000000000000000, -1.000000000000000000 ) ) ;
#235 = ORIENTED_EDGE ( 'NONE', *, *, #248, .F. ) ;
#236 = CARTESIAN_POINT ( 'NONE',  ( 0.000000000000000000, 0.000000000000000000, 315.0000000000000000 ) ) ;
#237 = EDGE_LOOP ( 'NONE', ( #3, #1 ) ) ;
#238 = FACE_OUTER_BOUND ( 'NONE', #112, .T. ) ;
#239 = DIRECTION ( 'NONE',  ( 0.000000000000000000, 0.000000000000000000, 1.000000000000000000 ) ) ;
#240 = APPLICATION_PROTOCOL_DEFINITION ( 'international standard', 'config_control_design', 1994, #7 ) ;
#241 = DATE_TIME_ROLE ( 'creation_date' ) ;
#242 = AXIS2_PLACEMENT_3D ( 'NONE', #174, #250, #231 ) ;
#243 = CALENDAR_DATE ( 2023, 13, 2 ) ;
#244 = CYLINDRICAL_SURFACE ( 'NONE', #133, 7.000000000000000000 ) ;
#245 = EDGE_CURVE ( 'NONE', #160, #144, #33, .T. ) ;
#246 = DATE_AND_TIME ( #243, #177 ) ;
#247 = LOCAL_TIME ( 13, 54, 12.00000000000000000, #65 ) ;
#248 = EDGE_CURVE ( 'NONE', #110, #178, #145, .T. ) ;
#249 = CYLINDRICAL_SURFACE ( 'NONE', #108, 7.000000000000000000 ) ;
#250 = DIRECTION ( 'NONE',  ( 0.000000000000000000, 0.000000000000000000, 1.000000000000000000 ) ) ;
#251 = LOCAL_TIME ( 13, 54, 12.00000000000000000, #49 ) ;
#252 = PRODUCT_DEFINITION ( 'NEZNÁMÝ', '', #74, #124 ) ;
#253 = ORIENTED_EDGE ( 'NONE', *, *, #15, .F. ) ;
#254 = AXIS2_PLACEMENT_3D ( 'NONE', #68, #86, #66 ) ;
#255 = CARTESIAN_POINT ( 'NONE',  ( 0.000000000000000000, 0.000000000000000000, 5.000000000000000000 ) ) ;
ENDSEC;
END-ISO-10303-21;
