ISO-10303-21;
HEADER;
FILE_DESCRIPTION (( 'STEP AP203' ),
    '1' );
FILE_NAME ('9354.STEP',
    '2023-02-13T14:06:53',
    ( '' ),
    ( '' ),
    'SwSTEP 2.0',
    'SolidWorks 2019',
    '' );
FILE_SCHEMA (( 'CONFIG_CONTROL_DESIGN' ));
ENDSEC;

DATA;
#1 = LINE ( 'NONE', #89, #42 ) ;
#2 = COORDINATED_UNIVERSAL_TIME_OFFSET ( 1, 0, .AHEAD. ) ;
#3 = CARTESIAN_POINT ( 'NONE',  ( -3.000000000000000444, 0.000000000000000000, 5.000000000000000000 ) ) ;
#4 = CARTESIAN_POINT ( 'NONE',  ( 0.000000000000000000, 0.000000000000000000, 630.0000000000000000 ) ) ;
#5 = CARTESIAN_POINT ( 'NONE',  ( 3.000000000000000444, 3.673940397442060361E-16, 630.0000000000000000 ) ) ;
#6 = CARTESIAN_POINT ( 'NONE',  ( 0.000000000000000000, 0.000000000000000000, 0.000000000000000000 ) ) ;
#7 = APPROVAL_STATUS ( 'not_yet_approved' ) ;
#8 = LOCAL_TIME ( 15, 6, 53.00000000000000000, #43 ) ;
#9 = MECHANICAL_CONTEXT ( 'NONE', #49, 'mechanical' ) ;
#10 = ORIENTED_EDGE ( 'NONE', *, *, #26, .F. ) ;
#11 = ADVANCED_FACE ( 'NONE', ( #209 ), #40, .T. ) ;
#12 = VERTEX_POINT ( 'NONE', #139 ) ;
#13 = DIRECTION ( 'NONE',  ( 1.000000000000000000, 0.000000000000000000, 0.000000000000000000 ) ) ;
#14 = EDGE_LOOP ( 'NONE', ( #189, #103 ) ) ;
#15 = ORGANIZATION ( 'NEURÈENÝ', 'NEURÈENÝ', '' ) ;
#16 = ORIENTED_EDGE ( 'NONE', *, *, #246, .F. ) ;
#17 = APPROVAL ( #128, 'NEURÈENÝ' ) ;
#18 = CC_DESIGN_DATE_AND_TIME_ASSIGNMENT ( #254, #140, ( #167 ) ) ;
#19 = DATE_AND_TIME ( #21, #156 ) ;
#20 = LINE ( 'NONE', #101, #25 ) ;
#21 = CALENDAR_DATE ( 2023, 13, 2 ) ;
#22 = CARTESIAN_POINT ( 'NONE',  ( 0.000000000000000000, 0.000000000000000000, 630.0000000000000000 ) ) ;
#23 = CC_DESIGN_PERSON_AND_ORGANIZATION_ASSIGNMENT ( #121, #165, ( #247 ) ) ;
#24 = CARTESIAN_POINT ( 'NONE',  ( -3.000000000000000444, 0.000000000000000000, 630.0000000000000000 ) ) ;
#25 = VECTOR ( 'NONE', #78, 1000.000000000000000 ) ;
#26 = EDGE_CURVE ( 'NONE', #36, #255, #136, .T. ) ;
#27 = FACE_BOUND ( 'NONE', #244, .T. ) ;
#28 =( GEOMETRIC_REPRESENTATION_CONTEXT ( 3 ) GLOBAL_UNCERTAINTY_ASSIGNED_CONTEXT ( ( #93 ) ) GLOBAL_UNIT_ASSIGNED_CONTEXT ( ( #74, #207, #54 ) ) REPRESENTATION_CONTEXT ( 'NONE', 'WORKASPACE' ) );
#29 = CARTESIAN_POINT ( 'NONE',  ( 6.000000000000000888, 7.347880794884120722E-16, 5.000000000000000000 ) ) ;
#30 = AXIS2_PLACEMENT_3D ( 'NONE', #118, #225, #192 ) ;
#31 = DIRECTION ( 'NONE',  ( -0.000000000000000000, -0.000000000000000000, -1.000000000000000000 ) ) ;
#32 = APPROVAL ( #7, 'NEURÈENÝ' ) ;
#33 = EDGE_LOOP ( 'NONE', ( #38, #134 ) ) ;
#34 = DIRECTION ( 'NONE',  ( 0.000000000000000000, 0.000000000000000000, 1.000000000000000000 ) ) ;
#35 = CC_DESIGN_SECURITY_CLASSIFICATION ( #247, ( #170 ) ) ;
#36 = VERTEX_POINT ( 'NONE', #119 ) ;
#37 = EDGE_CURVE ( 'NONE', #155, #46, #20, .T. ) ;
#38 = ORIENTED_EDGE ( 'NONE', *, *, #151, .T. ) ;
#39 = SECURITY_CLASSIFICATION_LEVEL ( 'unclassified' ) ;
#40 = CYLINDRICAL_SURFACE ( 'NONE', #30, 6.000000000000000888 ) ;
#41 = DIRECTION ( 'NONE',  ( 1.000000000000000000, 0.000000000000000000, 0.000000000000000000 ) ) ;
#42 = VECTOR ( 'NONE', #166, 1000.000000000000000 ) ;
#43 = COORDINATED_UNIVERSAL_TIME_OFFSET ( 1, 0, .AHEAD. ) ;
#44 = ADVANCED_FACE ( 'NONE', ( #229 ), #45, .T. ) ;
#45 = CYLINDRICAL_SURFACE ( 'NONE', #205, 3.000000000000000444 ) ;
#46 = VERTEX_POINT ( 'NONE', #79 ) ;
#47 = APPROVAL_PERSON_ORGANIZATION ( #105, #17, #163 ) ;
#48 = CARTESIAN_POINT ( 'NONE',  ( 0.000000000000000000, 0.000000000000000000, 630.0000000000000000 ) ) ;
#49 = APPLICATION_CONTEXT ( 'configuration controlled 3d designs of mechanical parts and assemblies' ) ;
#50 = CARTESIAN_POINT ( 'NONE',  ( -6.000000000000000888, 0.000000000000000000, 5.000000000000000000 ) ) ;
#51 = DIRECTION ( 'NONE',  ( 0.000000000000000000, 0.000000000000000000, 1.000000000000000000 ) ) ;
#52 = LOCAL_TIME ( 15, 6, 53.00000000000000000, #2 ) ;
#53 = DIRECTION ( 'NONE',  ( 0.000000000000000000, 0.000000000000000000, 1.000000000000000000 ) ) ;
#54 =( NAMED_UNIT ( * ) SI_UNIT ( $, .STERADIAN. ) SOLID_ANGLE_UNIT ( ) );
#55 = EDGE_LOOP ( 'NONE', ( #223, #222, #111, #60 ) ) ;
#56 = ORIENTED_EDGE ( 'NONE', *, *, #183, .F. ) ;
#57 = AXIS2_PLACEMENT_3D ( 'NONE', #145, #73, #235 ) ;
#58 = PERSON_AND_ORGANIZATION ( #221, #15 ) ;
#59 = ORIENTED_EDGE ( 'NONE', *, *, #26, .T. ) ;
#60 = ORIENTED_EDGE ( 'NONE', *, *, #37, .F. ) ;
#61 = VECTOR ( 'NONE', #199, 1000.000000000000000 ) ;
#62 = PERSON_AND_ORGANIZATION ( #221, #15 ) ;
#63 = CARTESIAN_POINT ( 'NONE',  ( 0.000000000000000000, 0.000000000000000000, 5.000000000000000000 ) ) ;
#64 = LOCAL_TIME ( 15, 6, 53.00000000000000000, #174 ) ;
#65 = APPROVAL_DATE_TIME ( #248, #32 ) ;
#66 = PLANE ( 'NONE',  #188 ) ;
#67 = DIRECTION ( 'NONE',  ( 1.000000000000000000, 0.000000000000000000, 0.000000000000000000 ) ) ;
#68 = ADVANCED_FACE ( 'NONE', ( #232 ), #66, .F. ) ;
#69 = SHAPE_DEFINITION_REPRESENTATION ( #138, #86 ) ;
#70 = CIRCLE ( 'NONE', #99, 6.000000000000000888 ) ;
#71 = DIRECTION ( 'NONE',  ( 0.000000000000000000, 0.000000000000000000, 1.000000000000000000 ) ) ;
#72 = CARTESIAN_POINT ( 'NONE',  ( 3.000000000000000444, 3.673940397442060361E-16, 630.0000000000000000 ) ) ;
#73 = DIRECTION ( 'NONE',  ( 0.000000000000000000, 0.000000000000000000, 1.000000000000000000 ) ) ;
#74 =( LENGTH_UNIT ( ) NAMED_UNIT ( * ) SI_UNIT ( .MILLI., .METRE. ) );
#75 = ORIENTED_EDGE ( 'NONE', *, *, #110, .F. ) ;
#76 = PERSON_AND_ORGANIZATION ( #221, #15 ) ;
#77 = APPROVAL_DATE_TIME ( #19, #233 ) ;
#78 = DIRECTION ( 'NONE',  ( -0.000000000000000000, -0.000000000000000000, -1.000000000000000000 ) ) ;
#79 = CARTESIAN_POINT ( 'NONE',  ( -6.000000000000000888, 0.000000000000000000, 0.000000000000000000 ) ) ;
#80 = LOCAL_TIME ( 15, 6, 53.00000000000000000, #239 ) ;
#81 = CLOSED_SHELL ( 'NONE', ( #122, #11, #176, #135, #68, #44, #97 ) ) ;
#82 = CARTESIAN_POINT ( 'NONE',  ( 0.000000000000000000, 0.000000000000000000, 630.0000000000000000 ) ) ;
#83 = DATE_AND_TIME ( #236, #80 ) ;
#84 = CC_DESIGN_DATE_AND_TIME_ASSIGNMENT ( #126, #198, ( #247 ) ) ;
#85 = DIRECTION ( 'NONE',  ( 1.000000000000000000, 0.000000000000000000, -0.000000000000000000 ) ) ;
#86 = ADVANCED_BREP_SHAPE_REPRESENTATION ( '9354', ( #250, #211 ), #28 ) ;
#87 = DIRECTION ( 'NONE',  ( 0.000000000000000000, 0.000000000000000000, 1.000000000000000000 ) ) ;
#88 = EDGE_CURVE ( 'NONE', #255, #36, #100, .T. ) ;
#89 = CARTESIAN_POINT ( 'NONE',  ( 6.000000000000000888, 7.347880794884120722E-16, 5.000000000000000000 ) ) ;
#90 = APPROVAL_ROLE ( '' ) ;
#91 = CC_DESIGN_PERSON_AND_ORGANIZATION_ASSIGNMENT ( #157, #226, ( #170 ) ) ;
#92 = ORIENTED_EDGE ( 'NONE', *, *, #202, .F. ) ;
#93 = UNCERTAINTY_MEASURE_WITH_UNIT (LENGTH_MEASURE( 1.000000000000000082E-05 ), #74, 'distance_accuracy_value', 'NONE');
#94 = AXIS2_PLACEMENT_3D ( 'NONE', #160, #234, #67 ) ;
#95 = ORIENTED_EDGE ( 'NONE', *, *, #110, .T. ) ;
#96 = AXIS2_PLACEMENT_3D ( 'NONE', #82, #237, #180 ) ;
#97 = ADVANCED_FACE ( 'NONE', ( #179 ), #200, .T. ) ;
#98 = ORIENTED_EDGE ( 'NONE', *, *, #246, .T. ) ;
#99 = AXIS2_PLACEMENT_3D ( 'NONE', #127, #53, #240 ) ;
#100 = CIRCLE ( 'NONE', #57, 3.000000000000000444 ) ;
#101 = CARTESIAN_POINT ( 'NONE',  ( -6.000000000000000888, 0.000000000000000000, 5.000000000000000000 ) ) ;
#102 = DIRECTION ( 'NONE',  ( -0.000000000000000000, -0.000000000000000000, -1.000000000000000000 ) ) ;
#103 = ORIENTED_EDGE ( 'NONE', *, *, #186, .F. ) ;
#104 = DIRECTION ( 'NONE',  ( -0.000000000000000000, -0.000000000000000000, -1.000000000000000000 ) ) ;
#105 = PERSON_AND_ORGANIZATION ( #221, #15 ) ;
#106 = CARTESIAN_POINT ( 'NONE',  ( 0.000000000000000000, 0.000000000000000000, 5.000000000000000000 ) ) ;
#107 = CYLINDRICAL_SURFACE ( 'NONE', #96, 3.000000000000000444 ) ;
#108 = CC_DESIGN_APPROVAL ( #233, ( #170 ) ) ;
#109 = DIRECTION ( 'NONE',  ( 0.000000000000000000, 0.000000000000000000, 1.000000000000000000 ) ) ;
#110 = EDGE_CURVE ( 'NONE', #169, #36, #215, .T. ) ;
#111 = ORIENTED_EDGE ( 'NONE', *, *, #186, .T. ) ;
#112 = CIRCLE ( 'NONE', #252, 6.000000000000000888 ) ;
#113 = CIRCLE ( 'NONE', #193, 6.000000000000000888 ) ;
#114 = ORIENTED_EDGE ( 'NONE', *, *, #88, .T. ) ;
#115 = ORIENTED_EDGE ( 'NONE', *, *, #37, .T. ) ;
#116 = AXIS2_PLACEMENT_3D ( 'NONE', #63, #210, #41 ) ;
#117 = PERSON_AND_ORGANIZATION ( #221, #15 ) ;
#118 = CARTESIAN_POINT ( 'NONE',  ( 0.000000000000000000, 0.000000000000000000, 5.000000000000000000 ) ) ;
#119 = CARTESIAN_POINT ( 'NONE',  ( 3.000000000000000444, 3.673940397442060361E-16, 5.000000000000000000 ) ) ;
#120 = APPROVAL_ROLE ( '' ) ;
#121 = PERSON_AND_ORGANIZATION ( #221, #15 ) ;
#122 = ADVANCED_FACE ( 'NONE', ( #203 ), #107, .T. ) ;
#123 = DIRECTION ( 'NONE',  ( 0.000000000000000000, 0.000000000000000000, 1.000000000000000000 ) ) ;
#124 = CIRCLE ( 'NONE', #217, 3.000000000000000444 ) ;
#125 = DIRECTION ( 'NONE',  ( 1.000000000000000000, 0.000000000000000000, -0.000000000000000000 ) ) ;
#126 = DATE_AND_TIME ( #218, #52 ) ;
#127 = CARTESIAN_POINT ( 'NONE',  ( 0.000000000000000000, 0.000000000000000000, 0.000000000000000000 ) ) ;
#128 = APPROVAL_STATUS ( 'not_yet_approved' ) ;
#129 = DIRECTION ( 'NONE',  ( 1.000000000000000000, 0.000000000000000000, 0.000000000000000000 ) ) ;
#130 = CYLINDRICAL_SURFACE ( 'NONE', #154, 6.000000000000000888 ) ;
#131 = CIRCLE ( 'NONE', #216, 6.000000000000000888 ) ;
#132 = ORIENTED_EDGE ( 'NONE', *, *, #88, .F. ) ;
#133 = PERSON_AND_ORGANIZATION_ROLE ( 'design_owner' ) ;
#134 = ORIENTED_EDGE ( 'NONE', *, *, #227, .T. ) ;
#135 = ADVANCED_FACE ( 'NONE', ( #27, #143 ), #177, .T. ) ;
#136 = CIRCLE ( 'NONE', #116, 3.000000000000000444 ) ;
#137 = PERSON_AND_ORGANIZATION_ROLE ( 'design_supplier' ) ;
#138 = PRODUCT_DEFINITION_SHAPE ( 'NONE', 'NONE',  #167 ) ;
#139 = CARTESIAN_POINT ( 'NONE',  ( -3.000000000000000444, 0.000000000000000000, 630.0000000000000000 ) ) ;
#140 = DATE_TIME_ROLE ( 'creation_date' ) ;
#141 = CARTESIAN_POINT ( 'NONE',  ( 0.000000000000000000, 0.000000000000000000, 0.000000000000000000 ) ) ;
#142 = APPROVAL_DATE_TIME ( #83, #17 ) ;
#143 = FACE_OUTER_BOUND ( 'NONE', #195, .T. ) ;
#144 = APPLICATION_CONTEXT ( 'configuration controlled 3d designs of mechanical parts and assemblies' ) ;
#145 = CARTESIAN_POINT ( 'NONE',  ( 0.000000000000000000, 0.000000000000000000, 5.000000000000000000 ) ) ;
#146 = CC_DESIGN_PERSON_AND_ORGANIZATION_ASSIGNMENT ( #76, #251, ( #167 ) ) ;
#147 = DIRECTION ( 'NONE',  ( 1.000000000000000000, 0.000000000000000000, 0.000000000000000000 ) ) ;
#148 = FACE_OUTER_BOUND ( 'NONE', #171, .T. ) ;
#149 = CARTESIAN_POINT ( 'NONE',  ( 6.000000000000000888, 7.347880794884120722E-16, 0.000000000000000000 ) ) ;
#150 = CC_DESIGN_APPROVAL ( #17, ( #247 ) ) ;
#151 = EDGE_CURVE ( 'NONE', #12, #169, #124, .T. ) ;
#152 = ORIENTED_EDGE ( 'NONE', *, *, #153, .T. ) ;
#153 = EDGE_CURVE ( 'NONE', #190, #155, #113, .T. ) ;
#154 = AXIS2_PLACEMENT_3D ( 'NONE', #220, #31, #219 ) ;
#155 = VERTEX_POINT ( 'NONE', #50 ) ;
#156 = LOCAL_TIME ( 15, 6, 53.00000000000000000, #228 ) ;
#157 = PERSON_AND_ORGANIZATION ( #221, #15 ) ;
#158 = DIRECTION ( 'NONE',  ( -1.000000000000000000, 0.000000000000000000, 0.000000000000000000 ) ) ;
#159 = APPROVAL_PERSON_ORGANIZATION ( #184, #32, #90 ) ;
#160 = CARTESIAN_POINT ( 'NONE',  ( 0.000000000000000000, 0.000000000000000000, 630.0000000000000000 ) ) ;
#161 = CARTESIAN_POINT ( 'NONE',  ( 0.000000000000000000, 0.000000000000000000, 5.000000000000000000 ) ) ;
#162 = EDGE_CURVE ( 'NONE', #46, #206, #70, .T. ) ;
#163 = APPROVAL_ROLE ( '' ) ;
#164 = DIRECTION ( 'NONE',  ( 1.000000000000000000, 0.000000000000000000, 0.000000000000000000 ) ) ;
#165 = PERSON_AND_ORGANIZATION_ROLE ( 'classification_officer' ) ;
#166 = DIRECTION ( 'NONE',  ( -0.000000000000000000, -0.000000000000000000, -1.000000000000000000 ) ) ;
#167 = PRODUCT_DEFINITION ( 'NEZNÁMÝ', '', #170, #194 ) ;
#168 = APPLICATION_PROTOCOL_DEFINITION ( 'international standard', 'config_control_design', 1994, #144 ) ;
#169 = VERTEX_POINT ( 'NONE', #72 ) ;
#170 = PRODUCT_DEFINITION_FORMATION_WITH_SPECIFIED_SOURCE ( 'LIBOVOLNÝ', '', #238, .NOT_KNOWN. ) ;
#171 = EDGE_LOOP ( 'NONE', ( #92, #56, #115, #249 ) ) ;
#172 = ORIENTED_EDGE ( 'NONE', *, *, #227, .F. ) ;
#173 = CALENDAR_DATE ( 2023, 13, 2 ) ;
#174 = COORDINATED_UNIVERSAL_TIME_OFFSET ( 1, 0, .AHEAD. ) ;
#175 = ORIENTED_EDGE ( 'NONE', *, *, #151, .F. ) ;
#176 = ADVANCED_FACE ( 'NONE', ( #148 ), #130, .T. ) ;
#177 = PLANE ( 'NONE',  #197 ) ;
#178 = CARTESIAN_POINT ( 'NONE',  ( 0.000000000000000000, 0.000000000000000000, 5.000000000000000000 ) ) ;
#179 = FACE_OUTER_BOUND ( 'NONE', #33, .T. ) ;
#180 = DIRECTION ( 'NONE',  ( -1.000000000000000000, 0.000000000000000000, 0.000000000000000000 ) ) ;
#181 = CIRCLE ( 'NONE', #94, 3.000000000000000444 ) ;
#182 = DIRECTION ( 'NONE',  ( 0.000000000000000000, 0.000000000000000000, 1.000000000000000000 ) ) ;
#183 = EDGE_CURVE ( 'NONE', #155, #190, #131, .T. ) ;
#184 = PERSON_AND_ORGANIZATION ( #221, #15 ) ;
#185 = ORIENTED_EDGE ( 'NONE', *, *, #183, .T. ) ;
#186 = EDGE_CURVE ( 'NONE', #206, #46, #112, .T. ) ;
#187 = APPLICATION_PROTOCOL_DEFINITION ( 'international standard', 'config_control_design', 1994, #49 ) ;
#188 = AXIS2_PLACEMENT_3D ( 'NONE', #141, #213, #241 ) ;
#189 = ORIENTED_EDGE ( 'NONE', *, *, #162, .F. ) ;
#190 = VERTEX_POINT ( 'NONE', #29 ) ;
#191 = APPROVAL_STATUS ( 'not_yet_approved' ) ;
#192 = DIRECTION ( 'NONE',  ( -1.000000000000000000, 0.000000000000000000, 0.000000000000000000 ) ) ;
#193 = AXIS2_PLACEMENT_3D ( 'NONE', #106, #87, #164 ) ;
#194 = DESIGN_CONTEXT ( 'detailed design', #144, 'design' ) ;
#195 = EDGE_LOOP ( 'NONE', ( #185, #152 ) ) ;
#196 = LINE ( 'NONE', #24, #230 ) ;
#197 = AXIS2_PLACEMENT_3D ( 'NONE', #178, #71, #125 ) ;
#198 = DATE_TIME_ROLE ( 'classification_date' ) ;
#199 = DIRECTION ( 'NONE',  ( -0.000000000000000000, -0.000000000000000000, -1.000000000000000000 ) ) ;
#200 = PLANE ( 'NONE',  #204 ) ;
#201 = DIRECTION ( 'NONE',  ( 1.000000000000000000, 0.000000000000000000, 0.000000000000000000 ) ) ;
#202 = EDGE_CURVE ( 'NONE', #190, #206, #1, .T. ) ;
#203 = FACE_OUTER_BOUND ( 'NONE', #242, .T. ) ;
#204 = AXIS2_PLACEMENT_3D ( 'NONE', #48, #182, #85 ) ;
#205 = AXIS2_PLACEMENT_3D ( 'NONE', #22, #102, #158 ) ;
#206 = VERTEX_POINT ( 'NONE', #149 ) ;
#207 =( NAMED_UNIT ( * ) PLANE_ANGLE_UNIT ( ) SI_UNIT ( $, .RADIAN. ) );
#208 = CC_DESIGN_PERSON_AND_ORGANIZATION_ASSIGNMENT ( #58, #133, ( #238 ) ) ;
#209 = FACE_OUTER_BOUND ( 'NONE', #55, .T. ) ;
#210 = DIRECTION ( 'NONE',  ( 0.000000000000000000, 0.000000000000000000, 1.000000000000000000 ) ) ;
#211 = AXIS2_PLACEMENT_3D ( 'NONE', #245, #34, #13 ) ;
#212 = CC_DESIGN_APPROVAL ( #32, ( #167 ) ) ;
#213 = DIRECTION ( 'NONE',  ( 0.000000000000000000, 0.000000000000000000, 1.000000000000000000 ) ) ;
#214 = CC_DESIGN_PERSON_AND_ORGANIZATION_ASSIGNMENT ( #62, #137, ( #170 ) ) ;
#215 = LINE ( 'NONE', #5, #61 ) ;
#216 = AXIS2_PLACEMENT_3D ( 'NONE', #161, #123, #129 ) ;
#217 = AXIS2_PLACEMENT_3D ( 'NONE', #4, #51, #147 ) ;
#218 = CALENDAR_DATE ( 2023, 13, 2 ) ;
#219 = DIRECTION ( 'NONE',  ( -1.000000000000000000, 0.000000000000000000, 0.000000000000000000 ) ) ;
#220 = CARTESIAN_POINT ( 'NONE',  ( 0.000000000000000000, 0.000000000000000000, 5.000000000000000000 ) ) ;
#221 = PERSON ( 'NEURÈENÝ', 'NEURÈENÝ', 'NEURÈENÝ', ('NEURÈENÝ'), ('NEURÈENÝ'), ('NEURÈENÝ') ) ;
#222 = ORIENTED_EDGE ( 'NONE', *, *, #202, .T. ) ;
#223 = ORIENTED_EDGE ( 'NONE', *, *, #153, .F. ) ;
#224 = CALENDAR_DATE ( 2023, 13, 2 ) ;
#225 = DIRECTION ( 'NONE',  ( -0.000000000000000000, -0.000000000000000000, -1.000000000000000000 ) ) ;
#226 = PERSON_AND_ORGANIZATION_ROLE ( 'creator' ) ;
#227 = EDGE_CURVE ( 'NONE', #169, #12, #181, .T. ) ;
#228 = COORDINATED_UNIVERSAL_TIME_OFFSET ( 1, 0, .AHEAD. ) ;
#229 = FACE_OUTER_BOUND ( 'NONE', #253, .T. ) ;
#230 = VECTOR ( 'NONE', #104, 1000.000000000000000 ) ;
#231 = APPROVAL_PERSON_ORGANIZATION ( #117, #233, #120 ) ;
#232 = FACE_OUTER_BOUND ( 'NONE', #14, .T. ) ;
#233 = APPROVAL ( #191, 'NEURÈENÝ' ) ;
#234 = DIRECTION ( 'NONE',  ( 0.000000000000000000, 0.000000000000000000, 1.000000000000000000 ) ) ;
#235 = DIRECTION ( 'NONE',  ( 1.000000000000000000, 0.000000000000000000, 0.000000000000000000 ) ) ;
#236 = CALENDAR_DATE ( 2023, 13, 2 ) ;
#237 = DIRECTION ( 'NONE',  ( -0.000000000000000000, -0.000000000000000000, -1.000000000000000000 ) ) ;
#238 = PRODUCT ( '9354', '9354', '', ( #9 ) ) ;
#239 = COORDINATED_UNIVERSAL_TIME_OFFSET ( 1, 0, .AHEAD. ) ;
#240 = DIRECTION ( 'NONE',  ( 1.000000000000000000, 0.000000000000000000, 0.000000000000000000 ) ) ;
#241 = DIRECTION ( 'NONE',  ( 1.000000000000000000, 0.000000000000000000, -0.000000000000000000 ) ) ;
#242 = EDGE_LOOP ( 'NONE', ( #172, #95, #59, #16 ) ) ;
#243 = PRODUCT_RELATED_PRODUCT_CATEGORY ( 'detail', '', ( #238 ) ) ;
#244 = EDGE_LOOP ( 'NONE', ( #132, #10 ) ) ;
#245 = CARTESIAN_POINT ( 'NONE',  ( 0.000000000000000000, 0.000000000000000000, 0.000000000000000000 ) ) ;
#246 = EDGE_CURVE ( 'NONE', #12, #255, #196, .T. ) ;
#247 = SECURITY_CLASSIFICATION ( '', '', #39 ) ;
#248 = DATE_AND_TIME ( #173, #8 ) ;
#249 = ORIENTED_EDGE ( 'NONE', *, *, #162, .T. ) ;
#250 = MANIFOLD_SOLID_BREP ( 'Pøidat vysunutím3', #81 ) ;
#251 = PERSON_AND_ORGANIZATION_ROLE ( 'creator' ) ;
#252 = AXIS2_PLACEMENT_3D ( 'NONE', #6, #109, #201 ) ;
#253 = EDGE_LOOP ( 'NONE', ( #75, #175, #98, #114 ) ) ;
#254 = DATE_AND_TIME ( #224, #64 ) ;
#255 = VERTEX_POINT ( 'NONE', #3 ) ;
ENDSEC;
END-ISO-10303-21;
