ISO-10303-21;
HEADER;
FILE_DESCRIPTION (( 'STEP AP203' ),
    '1' );
FILE_NAME ('31bc.STEP',
    '2023-02-13T14:37:17',
    ( '' ),
    ( '' ),
    'SwSTEP 2.0',
    'SolidWorks 2019',
    '' );
FILE_SCHEMA (( 'CONFIG_CONTROL_DESIGN' ));
ENDSEC;

DATA;
#1 = AXIS2_PLACEMENT_3D ( 'NONE', #225, #133, #249 ) ;
#2 = DIRECTION ( 'NONE',  ( 1.000000000000000000, 0.000000000000000000, 0.000000000000000000 ) ) ;
#3 = ADVANCED_FACE ( 'NONE', ( #88 ), #168, .T. ) ;
#4 = CC_DESIGN_APPROVAL ( #125, ( #81 ) ) ;
#5 = DIRECTION ( 'NONE',  ( 0.000000000000000000, 0.000000000000000000, 1.000000000000000000 ) ) ;
#6 = ORIENTED_EDGE ( 'NONE', *, *, #163, .T. ) ;
#7 = CIRCLE ( 'NONE', #111, 2.500000000000000000 ) ;
#8 = AXIS2_PLACEMENT_3D ( 'NONE', #105, #235, #86 ) ;
#9 = COORDINATED_UNIVERSAL_TIME_OFFSET ( 1, 0, .AHEAD. ) ;
#10 = EDGE_LOOP ( 'NONE', ( #110, #241 ) ) ;
#11 = VERTEX_POINT ( 'NONE', #247 ) ;
#12 = FACE_OUTER_BOUND ( 'NONE', #205, .T. ) ;
#13 = PERSON_AND_ORGANIZATION_ROLE ( 'creator' ) ;
#14 = DIRECTION ( 'NONE',  ( 0.000000000000000000, 0.000000000000000000, 1.000000000000000000 ) ) ;
#15 = PLANE ( 'NONE',  #139 ) ;
#16 = DATE_TIME_ROLE ( 'classification_date' ) ;
#17 = APPROVAL ( #248, 'NEURÈENÝ' ) ;
#18 = CARTESIAN_POINT ( 'NONE',  ( 0.000000000000000000, 0.000000000000000000, 3.000000000000000000 ) ) ;
#19 = CARTESIAN_POINT ( 'NONE',  ( 0.000000000000000000, 0.000000000000000000, 3.000000000000000000 ) ) ;
#20 = PERSON ( 'NEURÈENÝ', 'NEURÈENÝ', 'NEURÈENÝ', ('NEURÈENÝ'), ('NEURÈENÝ'), ('NEURÈENÝ') ) ;
#21 = APPLICATION_PROTOCOL_DEFINITION ( 'international standard', 'config_control_design', 1994, #65 ) ;
#22 = EDGE_LOOP ( 'NONE', ( #126, #83, #242, #149 ) ) ;
#23 = LOCAL_TIME ( 15, 37, 17.00000000000000000, #204 ) ;
#24 = CC_DESIGN_DATE_AND_TIME_ASSIGNMENT ( #188, #109, ( #81 ) ) ;
#25 = CARTESIAN_POINT ( 'NONE',  ( -5.000000000000000000, 0.000000000000000000, 3.000000000000000000 ) ) ;
#26 = ORIENTED_EDGE ( 'NONE', *, *, #169, .F. ) ;
#27 = AXIS2_PLACEMENT_3D ( 'NONE', #98, #94, #75 ) ;
#28 = APPROVAL_ROLE ( '' ) ;
#29 = CC_DESIGN_PERSON_AND_ORGANIZATION_ASSIGNMENT ( #150, #223, ( #151 ) ) ;
#30 = CALENDAR_DATE ( 2023, 13, 2 ) ;
#31 = MECHANICAL_CONTEXT ( 'NONE', #65, 'mechanical' ) ;
#32 = EDGE_LOOP ( 'NONE', ( #26, #167, #200, #70 ) ) ;
#33 = CIRCLE ( 'NONE', #61, 2.500000000000000000 ) ;
#34 = ADVANCED_FACE ( 'NONE', ( #171, #158 ), #15, .T. ) ;
#35 = DIRECTION ( 'NONE',  ( -1.000000000000000000, 0.000000000000000000, 0.000000000000000000 ) ) ;
#36 = DIRECTION ( 'NONE',  ( 1.000000000000000000, 0.000000000000000000, 0.000000000000000000 ) ) ;
#37 = CARTESIAN_POINT ( 'NONE',  ( 5.000000000000000000, 6.123233995736766282E-16, 3.000000000000000000 ) ) ;
#38 = PRODUCT_DEFINITION_SHAPE ( 'NONE', 'NONE',  #81 ) ;
#39 = DIRECTION ( 'NONE',  ( -1.000000000000000000, 0.000000000000000000, 0.000000000000000000 ) ) ;
#40 = LOCAL_TIME ( 15, 37, 17.00000000000000000, #74 ) ;
#41 = CARTESIAN_POINT ( 'NONE',  ( -2.500000000000000000, 0.000000000000000000, 200.0000000000000000 ) ) ;
#42 = DIRECTION ( 'NONE',  ( 1.000000000000000000, 0.000000000000000000, 0.000000000000000000 ) ) ;
#43 = ORIENTED_EDGE ( 'NONE', *, *, #163, .F. ) ;
#44 = EDGE_CURVE ( 'NONE', #11, #162, #239, .T. ) ;
#45 = CIRCLE ( 'NONE', #55, 2.500000000000000000 ) ;
#46 = ORIENTED_EDGE ( 'NONE', *, *, #44, .F. ) ;
#47 = EDGE_CURVE ( 'NONE', #162, #11, #196, .T. ) ;
#48 = COORDINATED_UNIVERSAL_TIME_OFFSET ( 1, 0, .AHEAD. ) ;
#49 =( GEOMETRIC_REPRESENTATION_CONTEXT ( 3 ) GLOBAL_UNCERTAINTY_ASSIGNED_CONTEXT ( ( #233 ) ) GLOBAL_UNIT_ASSIGNED_CONTEXT ( ( #231, #160, #199 ) ) REPRESENTATION_CONTEXT ( 'NONE', 'WORKASPACE' ) );
#50 = ORIENTED_EDGE ( 'NONE', *, *, #44, .T. ) ;
#51 = CYLINDRICAL_SURFACE ( 'NONE', #141, 2.500000000000000000 ) ;
#52 = DIRECTION ( 'NONE',  ( -0.000000000000000000, -0.000000000000000000, -1.000000000000000000 ) ) ;
#53 = DIRECTION ( 'NONE',  ( 1.000000000000000000, 0.000000000000000000, -0.000000000000000000 ) ) ;
#54 = DIRECTION ( 'NONE',  ( -0.000000000000000000, -0.000000000000000000, -1.000000000000000000 ) ) ;
#55 = AXIS2_PLACEMENT_3D ( 'NONE', #157, #228, #36 ) ;
#56 = CARTESIAN_POINT ( 'NONE',  ( 2.500000000000000000, 3.061616997868383141E-16, 200.0000000000000000 ) ) ;
#57 = EDGE_CURVE ( 'NONE', #187, #62, #7, .T. ) ;
#58 = EDGE_LOOP ( 'NONE', ( #43, #46, #60, #144 ) ) ;
#59 = ORGANIZATION ( 'NEURÈENÝ', 'NEURÈENÝ', '' ) ;
#60 = ORIENTED_EDGE ( 'NONE', *, *, #230, .T. ) ;
#61 = AXIS2_PLACEMENT_3D ( 'NONE', #153, #136, #96 ) ;
#62 = VERTEX_POINT ( 'NONE', #192 ) ;
#63 = AXIS2_PLACEMENT_3D ( 'NONE', #73, #155, #42 ) ;
#64 = ORIENTED_EDGE ( 'NONE', *, *, #47, .F. ) ;
#65 = APPLICATION_CONTEXT ( 'configuration controlled 3d designs of mechanical parts and assemblies' ) ;
#66 = VERTEX_POINT ( 'NONE', #175 ) ;
#67 = ORIENTED_EDGE ( 'NONE', *, *, #68, .T. ) ;
#68 = EDGE_CURVE ( 'NONE', #237, #119, #45, .T. ) ;
#69 = PERSON_AND_ORGANIZATION ( #20, #59 ) ;
#70 = ORIENTED_EDGE ( 'NONE', *, *, #93, .T. ) ;
#71 = DIRECTION ( 'NONE',  ( 0.000000000000000000, 0.000000000000000000, 1.000000000000000000 ) ) ;
#72 = VECTOR ( 'NONE', #193, 1000.000000000000000 ) ;
#73 = CARTESIAN_POINT ( 'NONE',  ( 0.000000000000000000, 0.000000000000000000, 0.000000000000000000 ) ) ;
#74 = COORDINATED_UNIVERSAL_TIME_OFFSET ( 1, 0, .AHEAD. ) ;
#75 = DIRECTION ( 'NONE',  ( 1.000000000000000000, 0.000000000000000000, 0.000000000000000000 ) ) ;
#76 = SHAPE_DEFINITION_REPRESENTATION ( #38, #216 ) ;
#77 = CARTESIAN_POINT ( 'NONE',  ( 2.500000000000000000, 3.061616997868383141E-16, 3.000000000000000000 ) ) ;
#78 = VECTOR ( 'NONE', #54, 1000.000000000000000 ) ;
#79 = FACE_OUTER_BOUND ( 'NONE', #22, .T. ) ;
#80 = PERSON_AND_ORGANIZATION ( #20, #59 ) ;
#81 = PRODUCT_DEFINITION ( 'NEZNÁMÝ', '', #107, #100 ) ;
#82 = CARTESIAN_POINT ( 'NONE',  ( 0.000000000000000000, 0.000000000000000000, 200.0000000000000000 ) ) ;
#83 = ORIENTED_EDGE ( 'NONE', *, *, #169, .T. ) ;
#84 = CIRCLE ( 'NONE', #63, 5.000000000000000000 ) ;
#85 = EDGE_LOOP ( 'NONE', ( #50, #129 ) ) ;
#86 = DIRECTION ( 'NONE',  ( 1.000000000000000000, 0.000000000000000000, 0.000000000000000000 ) ) ;
#87 = EDGE_CURVE ( 'NONE', #146, #66, #154, .T. ) ;
#88 = FACE_OUTER_BOUND ( 'NONE', #32, .T. ) ;
#89 = LOCAL_TIME ( 15, 37, 17.00000000000000000, #48 ) ;
#90 = DIRECTION ( 'NONE',  ( -0.000000000000000000, -0.000000000000000000, -1.000000000000000000 ) ) ;
#91 = LINE ( 'NONE', #56, #78 ) ;
#92 = PERSON_AND_ORGANIZATION ( #20, #59 ) ;
#93 = EDGE_CURVE ( 'NONE', #62, #187, #33, .T. ) ;
#94 = DIRECTION ( 'NONE',  ( 0.000000000000000000, 0.000000000000000000, 1.000000000000000000 ) ) ;
#95 = APPROVAL_PERSON_ORGANIZATION ( #226, #125, #28 ) ;
#96 = DIRECTION ( 'NONE',  ( 1.000000000000000000, 0.000000000000000000, 0.000000000000000000 ) ) ;
#97 = PERSON_AND_ORGANIZATION_ROLE ( 'design_supplier' ) ;
#98 = CARTESIAN_POINT ( 'NONE',  ( 0.000000000000000000, 0.000000000000000000, 3.000000000000000000 ) ) ;
#99 = EDGE_CURVE ( 'NONE', #237, #62, #252, .T. ) ;
#100 = DESIGN_CONTEXT ( 'detailed design', #130, 'design' ) ;
#101 = APPROVAL_PERSON_ORGANIZATION ( #92, #185, #174 ) ;
#102 = CARTESIAN_POINT ( 'NONE',  ( -2.500000000000000000, 0.000000000000000000, 200.0000000000000000 ) ) ;
#103 = CLOSED_SHELL ( 'NONE', ( #181, #220, #195, #34, #198, #3, #138 ) ) ;
#104 = LINE ( 'NONE', #25, #135 ) ;
#105 = CARTESIAN_POINT ( 'NONE',  ( 0.000000000000000000, 0.000000000000000000, 0.000000000000000000 ) ) ;
#106 = ORIENTED_EDGE ( 'NONE', *, *, #230, .F. ) ;
#107 = PRODUCT_DEFINITION_FORMATION_WITH_SPECIFIED_SOURCE ( 'LIBOVOLNÝ', '', #151, .NOT_KNOWN. ) ;
#108 = DATE_AND_TIME ( #30, #23 ) ;
#109 = DATE_TIME_ROLE ( 'creation_date' ) ;
#110 = ORIENTED_EDGE ( 'NONE', *, *, #93, .F. ) ;
#111 = AXIS2_PLACEMENT_3D ( 'NONE', #19, #117, #189 ) ;
#112 = CARTESIAN_POINT ( 'NONE',  ( 0.000000000000000000, 0.000000000000000000, 0.000000000000000000 ) ) ;
#113 = APPROVAL_ROLE ( '' ) ;
#114 = CARTESIAN_POINT ( 'NONE',  ( 0.000000000000000000, 0.000000000000000000, 200.0000000000000000 ) ) ;
#115 = DIRECTION ( 'NONE',  ( 0.000000000000000000, 0.000000000000000000, 1.000000000000000000 ) ) ;
#116 = DIRECTION ( 'NONE',  ( -0.000000000000000000, -0.000000000000000000, -1.000000000000000000 ) ) ;
#117 = DIRECTION ( 'NONE',  ( 0.000000000000000000, 0.000000000000000000, 1.000000000000000000 ) ) ;
#118 = PERSON_AND_ORGANIZATION_ROLE ( 'classification_officer' ) ;
#119 = VERTEX_POINT ( 'NONE', #214 ) ;
#120 = AXIS2_PLACEMENT_3D ( 'NONE', #82, #5, #2 ) ;
#121 = CC_DESIGN_PERSON_AND_ORGANIZATION_ASSIGNMENT ( #69, #97, ( #107 ) ) ;
#122 = ORIENTED_EDGE ( 'NONE', *, *, #217, .T. ) ;
#123 = PERSON_AND_ORGANIZATION ( #20, #59 ) ;
#124 = CYLINDRICAL_SURFACE ( 'NONE', #176, 5.000000000000000000 ) ;
#125 = APPROVAL ( #127, 'NEURÈENÝ' ) ;
#126 = ORIENTED_EDGE ( 'NONE', *, *, #217, .F. ) ;
#127 = APPROVAL_STATUS ( 'not_yet_approved' ) ;
#128 = LOCAL_TIME ( 15, 37, 17.00000000000000000, #251 ) ;
#129 = ORIENTED_EDGE ( 'NONE', *, *, #47, .T. ) ;
#130 = APPLICATION_CONTEXT ( 'configuration controlled 3d designs of mechanical parts and assemblies' ) ;
#131 = CARTESIAN_POINT ( 'NONE',  ( 0.000000000000000000, 0.000000000000000000, 3.000000000000000000 ) ) ;
#132 = PERSON_AND_ORGANIZATION_ROLE ( 'creator' ) ;
#133 = DIRECTION ( 'NONE',  ( 0.000000000000000000, 0.000000000000000000, 1.000000000000000000 ) ) ;
#134 = DATE_AND_TIME ( #232, #128 ) ;
#135 = VECTOR ( 'NONE', #142, 1000.000000000000000 ) ;
#136 = DIRECTION ( 'NONE',  ( 0.000000000000000000, 0.000000000000000000, 1.000000000000000000 ) ) ;
#137 = FACE_OUTER_BOUND ( 'NONE', #222, .T. ) ;
#138 = ADVANCED_FACE ( 'NONE', ( #137 ), #211, .T. ) ;
#139 = AXIS2_PLACEMENT_3D ( 'NONE', #18, #14, #53 ) ;
#140 = CYLINDRICAL_SURFACE ( 'NONE', #238, 5.000000000000000000 ) ;
#141 = AXIS2_PLACEMENT_3D ( 'NONE', #213, #90, #39 ) ;
#142 = DIRECTION ( 'NONE',  ( -0.000000000000000000, -0.000000000000000000, -1.000000000000000000 ) ) ;
#143 = DATE_AND_TIME ( #180, #40 ) ;
#144 = ORIENTED_EDGE ( 'NONE', *, *, #87, .T. ) ;
#145 = SECURITY_CLASSIFICATION ( '', '', #178 ) ;
#146 = VERTEX_POINT ( 'NONE', #224 ) ;
#147 = PRODUCT_RELATED_PRODUCT_CATEGORY ( 'detail', '', ( #151 ) ) ;
#148 = CIRCLE ( 'NONE', #120, 2.500000000000000000 ) ;
#149 = ORIENTED_EDGE ( 'NONE', *, *, #99, .F. ) ;
#150 = PERSON_AND_ORGANIZATION ( #20, #59 ) ;
#151 = PRODUCT ( '31bc', '31bc', '', ( #31 ) ) ;
#152 = CC_DESIGN_DATE_AND_TIME_ASSIGNMENT ( #134, #16, ( #145 ) ) ;
#153 = CARTESIAN_POINT ( 'NONE',  ( 0.000000000000000000, 0.000000000000000000, 3.000000000000000000 ) ) ;
#154 = CIRCLE ( 'NONE', #201, 5.000000000000000000 ) ;
#155 = DIRECTION ( 'NONE',  ( 0.000000000000000000, 0.000000000000000000, 1.000000000000000000 ) ) ;
#156 = LOCAL_TIME ( 15, 37, 17.00000000000000000, #9 ) ;
#157 = CARTESIAN_POINT ( 'NONE',  ( 0.000000000000000000, 0.000000000000000000, 200.0000000000000000 ) ) ;
#158 = FACE_OUTER_BOUND ( 'NONE', #85, .T. ) ;
#159 = ORIENTED_EDGE ( 'NONE', *, *, #87, .F. ) ;
#160 =( NAMED_UNIT ( * ) PLANE_ANGLE_UNIT ( ) SI_UNIT ( $, .RADIAN. ) );
#161 = CC_DESIGN_APPROVAL ( #185, ( #145 ) ) ;
#162 = VERTEX_POINT ( 'NONE', #37 ) ;
#163 = EDGE_CURVE ( 'NONE', #162, #66, #179, .T. ) ;
#164 = ORIENTED_EDGE ( 'NONE', *, *, #212, .T. ) ;
#165 = CALENDAR_DATE ( 2023, 13, 2 ) ;
#166 = AXIS2_PLACEMENT_3D ( 'NONE', #255, #115, #208 ) ;
#167 = ORIENTED_EDGE ( 'NONE', *, *, #68, .F. ) ;
#168 = CYLINDRICAL_SURFACE ( 'NONE', #244, 2.500000000000000000 ) ;
#169 = EDGE_CURVE ( 'NONE', #119, #187, #91, .T. ) ;
#170 = APPLICATION_PROTOCOL_DEFINITION ( 'international standard', 'config_control_design', 1994, #130 ) ;
#171 = FACE_BOUND ( 'NONE', #10, .T. ) ;
#172 = APPROVAL_DATE_TIME ( #108, #125 ) ;
#173 = PLANE ( 'NONE',  #1 ) ;
#174 = APPROVAL_ROLE ( '' ) ;
#175 = CARTESIAN_POINT ( 'NONE',  ( 5.000000000000000000, 6.123233995736766282E-16, 0.000000000000000000 ) ) ;
#176 = AXIS2_PLACEMENT_3D ( 'NONE', #218, #197, #236 ) ;
#177 = DIRECTION ( 'NONE',  ( 1.000000000000000000, 0.000000000000000000, -0.000000000000000000 ) ) ;
#178 = SECURITY_CLASSIFICATION_LEVEL ( 'unclassified' ) ;
#179 = LINE ( 'NONE', #227, #219 ) ;
#180 = CALENDAR_DATE ( 2023, 13, 2 ) ;
#181 = ADVANCED_FACE ( 'NONE', ( #79 ), #51, .T. ) ;
#182 = PERSON_AND_ORGANIZATION ( #20, #59 ) ;
#183 = ORIENTED_EDGE ( 'NONE', *, *, #212, .F. ) ;
#184 = CALENDAR_DATE ( 2023, 13, 2 ) ;
#185 = APPROVAL ( #210, 'NEURÈENÝ' ) ;
#186 = AXIS2_PLACEMENT_3D ( 'NONE', #114, #229, #177 ) ;
#187 = VERTEX_POINT ( 'NONE', #77 ) ;
#188 = DATE_AND_TIME ( #165, #156 ) ;
#189 = DIRECTION ( 'NONE',  ( 1.000000000000000000, 0.000000000000000000, 0.000000000000000000 ) ) ;
#190 = FACE_OUTER_BOUND ( 'NONE', #58, .T. ) ;
#191 = DIRECTION ( 'NONE',  ( 1.000000000000000000, 0.000000000000000000, 0.000000000000000000 ) ) ;
#192 = CARTESIAN_POINT ( 'NONE',  ( -2.500000000000000000, 0.000000000000000000, 3.000000000000000000 ) ) ;
#193 = DIRECTION ( 'NONE',  ( -0.000000000000000000, -0.000000000000000000, -1.000000000000000000 ) ) ;
#194 = MANIFOLD_SOLID_BREP ( 'Pøidat vysunutím3', #103 ) ;
#195 = ADVANCED_FACE ( 'NONE', ( #190 ), #140, .T. ) ;
#196 = CIRCLE ( 'NONE', #166, 5.000000000000000000 ) ;
#197 = DIRECTION ( 'NONE',  ( -0.000000000000000000, -0.000000000000000000, -1.000000000000000000 ) ) ;
#198 = ADVANCED_FACE ( 'NONE', ( #12 ), #173, .F. ) ;
#199 =( NAMED_UNIT ( * ) SI_UNIT ( $, .STERADIAN. ) SOLID_ANGLE_UNIT ( ) );
#200 = ORIENTED_EDGE ( 'NONE', *, *, #99, .T. ) ;
#201 = AXIS2_PLACEMENT_3D ( 'NONE', #112, #71, #191 ) ;
#202 = CC_DESIGN_SECURITY_CLASSIFICATION ( #145, ( #107 ) ) ;
#203 = CC_DESIGN_PERSON_AND_ORGANIZATION_ASSIGNMENT ( #80, #118, ( #145 ) ) ;
#204 = COORDINATED_UNIVERSAL_TIME_OFFSET ( 1, 0, .AHEAD. ) ;
#205 = EDGE_LOOP ( 'NONE', ( #159, #183 ) ) ;
#206 = DIRECTION ( 'NONE',  ( -0.000000000000000000, -0.000000000000000000, -1.000000000000000000 ) ) ;
#207 = PERSON_AND_ORGANIZATION ( #20, #59 ) ;
#208 = DIRECTION ( 'NONE',  ( 1.000000000000000000, 0.000000000000000000, 0.000000000000000000 ) ) ;
#209 = CC_DESIGN_APPROVAL ( #17, ( #107 ) ) ;
#210 = APPROVAL_STATUS ( 'not_yet_approved' ) ;
#211 = PLANE ( 'NONE',  #186 ) ;
#212 = EDGE_CURVE ( 'NONE', #66, #146, #84, .T. ) ;
#213 = CARTESIAN_POINT ( 'NONE',  ( 0.000000000000000000, 0.000000000000000000, 200.0000000000000000 ) ) ;
#214 = CARTESIAN_POINT ( 'NONE',  ( 2.500000000000000000, 3.061616997868383141E-16, 200.0000000000000000 ) ) ;
#215 = APPROVAL_PERSON_ORGANIZATION ( #123, #17, #113 ) ;
#216 = ADVANCED_BREP_SHAPE_REPRESENTATION ( '31bc', ( #194, #8 ), #49 ) ;
#217 = EDGE_CURVE ( 'NONE', #119, #237, #148, .T. ) ;
#218 = CARTESIAN_POINT ( 'NONE',  ( 0.000000000000000000, 0.000000000000000000, 3.000000000000000000 ) ) ;
#219 = VECTOR ( 'NONE', #52, 1000.000000000000000 ) ;
#220 = ADVANCED_FACE ( 'NONE', ( #234 ), #124, .T. ) ;
#221 = EDGE_LOOP ( 'NONE', ( #64, #6, #164, #106 ) ) ;
#222 = EDGE_LOOP ( 'NONE', ( #67, #122 ) ) ;
#223 = PERSON_AND_ORGANIZATION_ROLE ( 'design_owner' ) ;
#224 = CARTESIAN_POINT ( 'NONE',  ( -5.000000000000000000, 0.000000000000000000, 0.000000000000000000 ) ) ;
#225 = CARTESIAN_POINT ( 'NONE',  ( 0.000000000000000000, 0.000000000000000000, 0.000000000000000000 ) ) ;
#226 = PERSON_AND_ORGANIZATION ( #20, #59 ) ;
#227 = CARTESIAN_POINT ( 'NONE',  ( 5.000000000000000000, 6.123233995736766282E-16, 3.000000000000000000 ) ) ;
#228 = DIRECTION ( 'NONE',  ( 0.000000000000000000, 0.000000000000000000, 1.000000000000000000 ) ) ;
#229 = DIRECTION ( 'NONE',  ( 0.000000000000000000, 0.000000000000000000, 1.000000000000000000 ) ) ;
#230 = EDGE_CURVE ( 'NONE', #11, #146, #104, .T. ) ;
#231 =( LENGTH_UNIT ( ) NAMED_UNIT ( * ) SI_UNIT ( .MILLI., .METRE. ) );
#232 = CALENDAR_DATE ( 2023, 13, 2 ) ;
#233 = UNCERTAINTY_MEASURE_WITH_UNIT (LENGTH_MEASURE( 1.000000000000000082E-05 ), #231, 'distance_accuracy_value', 'NONE');
#234 = FACE_OUTER_BOUND ( 'NONE', #221, .T. ) ;
#235 = DIRECTION ( 'NONE',  ( 0.000000000000000000, 0.000000000000000000, 1.000000000000000000 ) ) ;
#236 = DIRECTION ( 'NONE',  ( -1.000000000000000000, 0.000000000000000000, 0.000000000000000000 ) ) ;
#237 = VERTEX_POINT ( 'NONE', #102 ) ;
#238 = AXIS2_PLACEMENT_3D ( 'NONE', #131, #206, #35 ) ;
#239 = CIRCLE ( 'NONE', #27, 5.000000000000000000 ) ;
#240 = CC_DESIGN_PERSON_AND_ORGANIZATION_ASSIGNMENT ( #207, #13, ( #107 ) ) ;
#241 = ORIENTED_EDGE ( 'NONE', *, *, #57, .F. ) ;
#242 = ORIENTED_EDGE ( 'NONE', *, *, #57, .T. ) ;
#243 = DATE_AND_TIME ( #184, #89 ) ;
#244 = AXIS2_PLACEMENT_3D ( 'NONE', #246, #116, #250 ) ;
#245 = APPROVAL_DATE_TIME ( #243, #17 ) ;
#246 = CARTESIAN_POINT ( 'NONE',  ( 0.000000000000000000, 0.000000000000000000, 200.0000000000000000 ) ) ;
#247 = CARTESIAN_POINT ( 'NONE',  ( -5.000000000000000000, 0.000000000000000000, 3.000000000000000000 ) ) ;
#248 = APPROVAL_STATUS ( 'not_yet_approved' ) ;
#249 = DIRECTION ( 'NONE',  ( 1.000000000000000000, 0.000000000000000000, -0.000000000000000000 ) ) ;
#250 = DIRECTION ( 'NONE',  ( -1.000000000000000000, 0.000000000000000000, 0.000000000000000000 ) ) ;
#251 = COORDINATED_UNIVERSAL_TIME_OFFSET ( 1, 0, .AHEAD. ) ;
#252 = LINE ( 'NONE', #41, #72 ) ;
#253 = CC_DESIGN_PERSON_AND_ORGANIZATION_ASSIGNMENT ( #182, #132, ( #81 ) ) ;
#254 = APPROVAL_DATE_TIME ( #143, #185 ) ;
#255 = CARTESIAN_POINT ( 'NONE',  ( 0.000000000000000000, 0.000000000000000000, 3.000000000000000000 ) ) ;
ENDSEC;
END-ISO-10303-21;
