ISO-10303-21;
HEADER;
FILE_DESCRIPTION (( 'STEP AP203' ),
    '1' );
FILE_NAME ('6c08.STEP',
    '2023-02-13T14:07:45',
    ( '' ),
    ( '' ),
    'SwSTEP 2.0',
    'SolidWorks 2019',
    '' );
FILE_SCHEMA (( 'CONFIG_CONTROL_DESIGN' ));
ENDSEC;

DATA;
#1 = VERTEX_POINT ( 'NONE', #233 ) ;
#2 = CARTESIAN_POINT ( 'NONE',  ( 0.000000000000000000, 0.000000000000000000, 5.000000000000000000 ) ) ;
#3 = ORIENTED_EDGE ( 'NONE', *, *, #45, .T. ) ;
#4 = EDGE_LOOP ( 'NONE', ( #175, #141, #156, #82 ) ) ;
#5 = DIRECTION ( 'NONE',  ( -1.000000000000000000, 0.000000000000000000, 0.000000000000000000 ) ) ;
#6 = APPLICATION_CONTEXT ( 'configuration controlled 3d designs of mechanical parts and assemblies' ) ;
#7 = APPROVAL_DATE_TIME ( #27, #15 ) ;
#8 = FACE_OUTER_BOUND ( 'NONE', #213, .T. ) ;
#9 = LOCAL_TIME ( 15, 7, 45.00000000000000000, #210 ) ;
#10 = COORDINATED_UNIVERSAL_TIME_OFFSET ( 1, 0, .AHEAD. ) ;
#11 = DIRECTION ( 'NONE',  ( -0.000000000000000000, -0.000000000000000000, -1.000000000000000000 ) ) ;
#12 = PERSON_AND_ORGANIZATION ( #16, #43 ) ;
#13 = DIRECTION ( 'NONE',  ( 1.000000000000000000, 0.000000000000000000, 0.000000000000000000 ) ) ;
#14 = CALENDAR_DATE ( 2023, 13, 2 ) ;
#15 = APPROVAL ( #91, 'NEURÈENÝ' ) ;
#16 = PERSON ( 'NEURÈENÝ', 'NEURÈENÝ', 'NEURÈENÝ', ('NEURÈENÝ'), ('NEURÈENÝ'), ('NEURÈENÝ') ) ;
#17 = CLOSED_SHELL ( 'NONE', ( #100, #144, #86, #211, #117, #250, #40 ) ) ;
#18 = CALENDAR_DATE ( 2023, 13, 2 ) ;
#19 = CC_DESIGN_APPROVAL ( #44, ( #214 ) ) ;
#20 = CARTESIAN_POINT ( 'NONE',  ( 3.000000000000000444, 3.673940397442060361E-16, 5.000000000000000000 ) ) ;
#21 = FACE_OUTER_BOUND ( 'NONE', #239, .T. ) ;
#22 = ORIENTED_EDGE ( 'NONE', *, *, #244, .F. ) ;
#23 = EDGE_LOOP ( 'NONE', ( #101, #126 ) ) ;
#24 = ORIENTED_EDGE ( 'NONE', *, *, #57, .F. ) ;
#25 = DIRECTION ( 'NONE',  ( 0.000000000000000000, 0.000000000000000000, 1.000000000000000000 ) ) ;
#26 = AXIS2_PLACEMENT_3D ( 'NONE', #235, #207, #13 ) ;
#27 = DATE_AND_TIME ( #14, #95 ) ;
#28 = MECHANICAL_CONTEXT ( 'NONE', #6, 'mechanical' ) ;
#29 = CARTESIAN_POINT ( 'NONE',  ( 0.000000000000000000, 0.000000000000000000, 0.000000000000000000 ) ) ;
#30 = DATE_AND_TIME ( #186, #130 ) ;
#31 = CC_DESIGN_PERSON_AND_ORGANIZATION_ASSIGNMENT ( #205, #89, ( #214 ) ) ;
#32 = CALENDAR_DATE ( 2023, 13, 2 ) ;
#33 = LINE ( 'NONE', #249, #121 ) ;
#34 = VECTOR ( 'NONE', #174, 1000.000000000000000 ) ;
#35 = LINE ( 'NONE', #90, #185 ) ;
#36 = CIRCLE ( 'NONE', #217, 3.000000000000000444 ) ;
#37 = PLANE ( 'NONE',  #193 ) ;
#38 = APPLICATION_PROTOCOL_DEFINITION ( 'international standard', 'config_control_design', 1994, #6 ) ;
#39 = VERTEX_POINT ( 'NONE', #61 ) ;
#40 = ADVANCED_FACE ( 'NONE', ( #60 ), #37, .T. ) ;
#41 = VERTEX_POINT ( 'NONE', #20 ) ;
#42 = CIRCLE ( 'NONE', #183, 6.000000000000000888 ) ;
#43 = ORGANIZATION ( 'NEURÈENÝ', 'NEURÈENÝ', '' ) ;
#44 = APPROVAL ( #115, 'NEURÈENÝ' ) ;
#45 = EDGE_CURVE ( 'NONE', #152, #41, #140, .T. ) ;
#46 = CARTESIAN_POINT ( 'NONE',  ( 0.000000000000000000, 0.000000000000000000, 160.0000000000000000 ) ) ;
#47 = EDGE_CURVE ( 'NONE', #41, #138, #125, .T. ) ;
#48 = CALENDAR_DATE ( 2023, 13, 2 ) ;
#49 = APPLICATION_CONTEXT ( 'configuration controlled 3d designs of mechanical parts and assemblies' ) ;
#50 = PERSON_AND_ORGANIZATION_ROLE ( 'design_owner' ) ;
#51 = CARTESIAN_POINT ( 'NONE',  ( 0.000000000000000000, 0.000000000000000000, 5.000000000000000000 ) ) ;
#52 = UNCERTAINTY_MEASURE_WITH_UNIT (LENGTH_MEASURE( 1.000000000000000082E-05 ), #247, 'distance_accuracy_value', 'NONE');
#53 = CC_DESIGN_DATE_AND_TIME_ASSIGNMENT ( #245, #73, ( #214 ) ) ;
#54 = CC_DESIGN_SECURITY_CLASSIFICATION ( #137, ( #87 ) ) ;
#55 = COORDINATED_UNIVERSAL_TIME_OFFSET ( 1, 0, .AHEAD. ) ;
#56 = CARTESIAN_POINT ( 'NONE',  ( 3.000000000000000444, 3.673940397442060361E-16, 160.0000000000000000 ) ) ;
#57 = EDGE_CURVE ( 'NONE', #103, #171, #42, .T. ) ;
#58 = DIRECTION ( 'NONE',  ( 1.000000000000000000, 0.000000000000000000, 0.000000000000000000 ) ) ;
#59 = CIRCLE ( 'NONE', #97, 6.000000000000000888 ) ;
#60 = FACE_OUTER_BOUND ( 'NONE', #23, .T. ) ;
#61 = CARTESIAN_POINT ( 'NONE',  ( -6.000000000000000888, 0.000000000000000000, 0.000000000000000000 ) ) ;
#62 = AXIS2_PLACEMENT_3D ( 'NONE', #116, #173, #133 ) ;
#63 = DIRECTION ( 'NONE',  ( 1.000000000000000000, 0.000000000000000000, 0.000000000000000000 ) ) ;
#64 = EDGE_LOOP ( 'NONE', ( #200, #3, #124, #232 ) ) ;
#65 = EDGE_CURVE ( 'NONE', #39, #96, #223, .T. ) ;
#66 = ORIENTED_EDGE ( 'NONE', *, *, #57, .T. ) ;
#67 = CARTESIAN_POINT ( 'NONE',  ( 6.000000000000000888, 7.347880794884120722E-16, 0.000000000000000000 ) ) ;
#68 = EDGE_CURVE ( 'NONE', #1, #152, #36, .T. ) ;
#69 = DIRECTION ( 'NONE',  ( 1.000000000000000000, 0.000000000000000000, 0.000000000000000000 ) ) ;
#70 = APPROVAL_DATE_TIME ( #160, #44 ) ;
#71 = DIRECTION ( 'NONE',  ( -1.000000000000000000, 0.000000000000000000, 0.000000000000000000 ) ) ;
#72 = DIRECTION ( 'NONE',  ( 1.000000000000000000, 0.000000000000000000, 0.000000000000000000 ) ) ;
#73 = DATE_TIME_ROLE ( 'creation_date' ) ;
#74 = CYLINDRICAL_SURFACE ( 'NONE', #248, 6.000000000000000888 ) ;
#75 =( NAMED_UNIT ( * ) PLANE_ANGLE_UNIT ( ) SI_UNIT ( $, .RADIAN. ) );
#76 = CARTESIAN_POINT ( 'NONE',  ( 0.000000000000000000, 0.000000000000000000, 0.000000000000000000 ) ) ;
#77 = AXIS2_PLACEMENT_3D ( 'NONE', #122, #204, #58 ) ;
#78 = CYLINDRICAL_SURFACE ( 'NONE', #230, 3.000000000000000444 ) ;
#79 = AXIS2_PLACEMENT_3D ( 'NONE', #104, #111, #143 ) ;
#80 = APPROVAL_ROLE ( '' ) ;
#81 =( NAMED_UNIT ( * ) SI_UNIT ( $, .STERADIAN. ) SOLID_ANGLE_UNIT ( ) );
#82 = ORIENTED_EDGE ( 'NONE', *, *, #253, .F. ) ;
#83 = CARTESIAN_POINT ( 'NONE',  ( 0.000000000000000000, 0.000000000000000000, 5.000000000000000000 ) ) ;
#84 = ORIENTED_EDGE ( 'NONE', *, *, #244, .T. ) ;
#85 = ORIENTED_EDGE ( 'NONE', *, *, #234, .T. ) ;
#86 = ADVANCED_FACE ( 'NONE', ( #8 ), #178, .T. ) ;
#87 = PRODUCT_DEFINITION_FORMATION_WITH_SPECIFIED_SOURCE ( 'LIBOVOLNÝ', '', #181, .NOT_KNOWN. ) ;
#88 = DIRECTION ( 'NONE',  ( 1.000000000000000000, 0.000000000000000000, -0.000000000000000000 ) ) ;
#89 = PERSON_AND_ORGANIZATION_ROLE ( 'creator' ) ;
#90 = CARTESIAN_POINT ( 'NONE',  ( -6.000000000000000888, 0.000000000000000000, 5.000000000000000000 ) ) ;
#91 = APPROVAL_STATUS ( 'not_yet_approved' ) ;
#92 = PERSON_AND_ORGANIZATION ( #16, #43 ) ;
#93 = AXIS2_PLACEMENT_3D ( 'NONE', #83, #237, #63 ) ;
#94 = DIRECTION ( 'NONE',  ( -1.000000000000000000, 0.000000000000000000, 0.000000000000000000 ) ) ;
#95 = LOCAL_TIME ( 15, 7, 45.00000000000000000, #191 ) ;
#96 = VERTEX_POINT ( 'NONE', #67 ) ;
#97 = AXIS2_PLACEMENT_3D ( 'NONE', #227, #169, #135 ) ;
#98 = EDGE_LOOP ( 'NONE', ( #22, #172 ) ) ;
#99 = DIRECTION ( 'NONE',  ( 1.000000000000000000, 0.000000000000000000, -0.000000000000000000 ) ) ;
#100 = ADVANCED_FACE ( 'NONE', ( #179 ), #219, .T. ) ;
#101 = ORIENTED_EDGE ( 'NONE', *, *, #68, .T. ) ;
#102 = LOCAL_TIME ( 15, 7, 45.00000000000000000, #10 ) ;
#103 = VERTEX_POINT ( 'NONE', #201 ) ;
#104 = CARTESIAN_POINT ( 'NONE',  ( 0.000000000000000000, 0.000000000000000000, 0.000000000000000000 ) ) ;
#105 = VECTOR ( 'NONE', #187, 1000.000000000000000 ) ;
#106 = DIRECTION ( 'NONE',  ( -0.000000000000000000, -0.000000000000000000, -1.000000000000000000 ) ) ;
#107 = APPLICATION_PROTOCOL_DEFINITION ( 'international standard', 'config_control_design', 1994, #49 ) ;
#108 = FACE_OUTER_BOUND ( 'NONE', #198, .T. ) ;
#109 = APPROVAL_ROLE ( '' ) ;
#110 = PRODUCT_RELATED_PRODUCT_CATEGORY ( 'detail', '', ( #181 ) ) ;
#111 = DIRECTION ( 'NONE',  ( 0.000000000000000000, 0.000000000000000000, 1.000000000000000000 ) ) ;
#112 = PERSON_AND_ORGANIZATION ( #16, #43 ) ;
#113 = CARTESIAN_POINT ( 'NONE',  ( 0.000000000000000000, 0.000000000000000000, 5.000000000000000000 ) ) ;
#114 = CARTESIAN_POINT ( 'NONE',  ( 6.000000000000000888, 7.347880794884120722E-16, 5.000000000000000000 ) ) ;
#115 = APPROVAL_STATUS ( 'not_yet_approved' ) ;
#116 = CARTESIAN_POINT ( 'NONE',  ( 0.000000000000000000, 0.000000000000000000, 5.000000000000000000 ) ) ;
#117 = ADVANCED_FACE ( 'NONE', ( #108 ), #202, .F. ) ;
#118 = DIRECTION ( 'NONE',  ( -0.000000000000000000, -0.000000000000000000, -1.000000000000000000 ) ) ;
#119 = AXIS2_PLACEMENT_3D ( 'NONE', #46, #158, #71 ) ;
#120 = DIRECTION ( 'NONE',  ( 0.000000000000000000, 0.000000000000000000, 1.000000000000000000 ) ) ;
#121 = VECTOR ( 'NONE', #147, 1000.000000000000000 ) ;
#122 = CARTESIAN_POINT ( 'NONE',  ( 0.000000000000000000, 0.000000000000000000, 160.0000000000000000 ) ) ;
#123 = MANIFOLD_SOLID_BREP ( 'Pøidat vysunutím3', #17 ) ;
#124 = ORIENTED_EDGE ( 'NONE', *, *, #47, .T. ) ;
#125 = CIRCLE ( 'NONE', #93, 3.000000000000000444 ) ;
#126 = ORIENTED_EDGE ( 'NONE', *, *, #238, .T. ) ;
#127 =( GEOMETRIC_REPRESENTATION_CONTEXT ( 3 ) GLOBAL_UNCERTAINTY_ASSIGNED_CONTEXT ( ( #52 ) ) GLOBAL_UNIT_ASSIGNED_CONTEXT ( ( #247, #75, #81 ) ) REPRESENTATION_CONTEXT ( 'NONE', 'WORKASPACE' ) );
#128 = CC_DESIGN_PERSON_AND_ORGANIZATION_ASSIGNMENT ( #164, #225, ( #87 ) ) ;
#129 = CARTESIAN_POINT ( 'NONE',  ( 0.000000000000000000, 0.000000000000000000, 5.000000000000000000 ) ) ;
#130 = LOCAL_TIME ( 15, 7, 45.00000000000000000, #55 ) ;
#131 = CARTESIAN_POINT ( 'NONE',  ( 0.000000000000000000, 0.000000000000000000, 160.0000000000000000 ) ) ;
#132 = PERSON_AND_ORGANIZATION_ROLE ( 'creator' ) ;
#133 = DIRECTION ( 'NONE',  ( 1.000000000000000000, 0.000000000000000000, 0.000000000000000000 ) ) ;
#134 = DATE_TIME_ROLE ( 'classification_date' ) ;
#135 = DIRECTION ( 'NONE',  ( 1.000000000000000000, 0.000000000000000000, 0.000000000000000000 ) ) ;
#136 = FACE_OUTER_BOUND ( 'NONE', #157, .T. ) ;
#137 = SECURITY_CLASSIFICATION ( '', '', #165 ) ;
#138 = VERTEX_POINT ( 'NONE', #162 ) ;
#139 = AXIS2_PLACEMENT_3D ( 'NONE', #2, #190, #150 ) ;
#140 = LINE ( 'NONE', #215, #34 ) ;
#141 = ORIENTED_EDGE ( 'NONE', *, *, #148, .T. ) ;
#142 = CC_DESIGN_PERSON_AND_ORGANIZATION_ASSIGNMENT ( #92, #50, ( #181 ) ) ;
#143 = DIRECTION ( 'NONE',  ( 1.000000000000000000, 0.000000000000000000, 0.000000000000000000 ) ) ;
#144 = ADVANCED_FACE ( 'NONE', ( #246 ), #74, .T. ) ;
#145 = AXIS2_PLACEMENT_3D ( 'NONE', #76, #242, #222 ) ;
#146 = DIRECTION ( 'NONE',  ( 0.000000000000000000, 0.000000000000000000, 1.000000000000000000 ) ) ;
#147 = DIRECTION ( 'NONE',  ( -0.000000000000000000, -0.000000000000000000, -1.000000000000000000 ) ) ;
#148 = EDGE_CURVE ( 'NONE', #171, #96, #154, .T. ) ;
#149 = DIRECTION ( 'NONE',  ( -0.000000000000000000, -0.000000000000000000, -1.000000000000000000 ) ) ;
#150 = DIRECTION ( 'NONE',  ( 1.000000000000000000, 0.000000000000000000, -0.000000000000000000 ) ) ;
#151 = CC_DESIGN_APPROVAL ( #163, ( #137 ) ) ;
#152 = VERTEX_POINT ( 'NONE', #56 ) ;
#153 = ORIENTED_EDGE ( 'NONE', *, *, #68, .F. ) ;
#154 = LINE ( 'NONE', #224, #105 ) ;
#155 = ORIENTED_EDGE ( 'NONE', *, *, #228, .F. ) ;
#156 = ORIENTED_EDGE ( 'NONE', *, *, #228, .T. ) ;
#157 = EDGE_LOOP ( 'NONE', ( #197, #153, #85, #84 ) ) ;
#158 = DIRECTION ( 'NONE',  ( -0.000000000000000000, -0.000000000000000000, -1.000000000000000000 ) ) ;
#159 = APPROVAL_PERSON_ORGANIZATION ( #189, #44, #109 ) ;
#160 = DATE_AND_TIME ( #48, #102 ) ;
#161 = APPROVAL_PERSON_ORGANIZATION ( #206, #163, #80 ) ;
#162 = CARTESIAN_POINT ( 'NONE',  ( -3.000000000000000444, 0.000000000000000000, 5.000000000000000000 ) ) ;
#163 = APPROVAL ( #167, 'NEURÈENÝ' ) ;
#164 = PERSON_AND_ORGANIZATION ( #16, #43 ) ;
#165 = SECURITY_CLASSIFICATION_LEVEL ( 'unclassified' ) ;
#166 = FACE_BOUND ( 'NONE', #98, .T. ) ;
#167 = APPROVAL_STATUS ( 'not_yet_approved' ) ;
#168 = CIRCLE ( 'NONE', #62, 3.000000000000000444 ) ;
#169 = DIRECTION ( 'NONE',  ( 0.000000000000000000, 0.000000000000000000, 1.000000000000000000 ) ) ;
#170 = APPROVAL_DATE_TIME ( #194, #163 ) ;
#171 = VERTEX_POINT ( 'NONE', #114 ) ;
#172 = ORIENTED_EDGE ( 'NONE', *, *, #47, .F. ) ;
#173 = DIRECTION ( 'NONE',  ( 0.000000000000000000, 0.000000000000000000, 1.000000000000000000 ) ) ;
#174 = DIRECTION ( 'NONE',  ( -0.000000000000000000, -0.000000000000000000, -1.000000000000000000 ) ) ;
#175 = ORIENTED_EDGE ( 'NONE', *, *, #220, .F. ) ;
#176 = APPROVAL_PERSON_ORGANIZATION ( #12, #15, #221 ) ;
#177 = AXIS2_PLACEMENT_3D ( 'NONE', #29, #184, #88 ) ;
#178 = CYLINDRICAL_SURFACE ( 'NONE', #195, 6.000000000000000888 ) ;
#179 = FACE_OUTER_BOUND ( 'NONE', #64, .T. ) ;
#180 = PERSON_AND_ORGANIZATION ( #16, #43 ) ;
#181 = PRODUCT ( '6c08', '6c08', '', ( #28 ) ) ;
#182 = COORDINATED_UNIVERSAL_TIME_OFFSET ( 1, 0, .AHEAD. ) ;
#183 = AXIS2_PLACEMENT_3D ( 'NONE', #129, #25, #72 ) ;
#184 = DIRECTION ( 'NONE',  ( 0.000000000000000000, 0.000000000000000000, 1.000000000000000000 ) ) ;
#185 = VECTOR ( 'NONE', #118, 1000.000000000000000 ) ;
#186 = CALENDAR_DATE ( 2023, 13, 2 ) ;
#187 = DIRECTION ( 'NONE',  ( -0.000000000000000000, -0.000000000000000000, -1.000000000000000000 ) ) ;
#188 = CC_DESIGN_PERSON_AND_ORGANIZATION_ASSIGNMENT ( #112, #203, ( #137 ) ) ;
#189 = PERSON_AND_ORGANIZATION ( #16, #43 ) ;
#190 = DIRECTION ( 'NONE',  ( 0.000000000000000000, 0.000000000000000000, 1.000000000000000000 ) ) ;
#191 = COORDINATED_UNIVERSAL_TIME_OFFSET ( 1, 0, .AHEAD. ) ;
#192 = CARTESIAN_POINT ( 'NONE',  ( 0.000000000000000000, 0.000000000000000000, 160.0000000000000000 ) ) ;
#193 = AXIS2_PLACEMENT_3D ( 'NONE', #196, #120, #99 ) ;
#194 = DATE_AND_TIME ( #18, #9 ) ;
#195 = AXIS2_PLACEMENT_3D ( 'NONE', #51, #106, #5 ) ;
#196 = CARTESIAN_POINT ( 'NONE',  ( 0.000000000000000000, 0.000000000000000000, 160.0000000000000000 ) ) ;
#197 = ORIENTED_EDGE ( 'NONE', *, *, #45, .F. ) ;
#198 = EDGE_LOOP ( 'NONE', ( #199, #155 ) ) ;
#199 = ORIENTED_EDGE ( 'NONE', *, *, #65, .F. ) ;
#200 = ORIENTED_EDGE ( 'NONE', *, *, #238, .F. ) ;
#201 = CARTESIAN_POINT ( 'NONE',  ( -6.000000000000000888, 0.000000000000000000, 5.000000000000000000 ) ) ;
#202 = PLANE ( 'NONE',  #177 ) ;
#203 = PERSON_AND_ORGANIZATION_ROLE ( 'classification_officer' ) ;
#204 = DIRECTION ( 'NONE',  ( 0.000000000000000000, 0.000000000000000000, 1.000000000000000000 ) ) ;
#205 = PERSON_AND_ORGANIZATION ( #16, #43 ) ;
#206 = PERSON_AND_ORGANIZATION ( #16, #43 ) ;
#207 = DIRECTION ( 'NONE',  ( 0.000000000000000000, 0.000000000000000000, 1.000000000000000000 ) ) ;
#208 = PRODUCT_DEFINITION_SHAPE ( 'NONE', 'NONE',  #214 ) ;
#209 = DIRECTION ( 'NONE',  ( -1.000000000000000000, 0.000000000000000000, 0.000000000000000000 ) ) ;
#210 = COORDINATED_UNIVERSAL_TIME_OFFSET ( 1, 0, .AHEAD. ) ;
#211 = ADVANCED_FACE ( 'NONE', ( #166, #21 ), #252, .T. ) ;
#212 = CC_DESIGN_DATE_AND_TIME_ASSIGNMENT ( #30, #134, ( #137 ) ) ;
#213 = EDGE_LOOP ( 'NONE', ( #218, #24, #216, #240 ) ) ;
#214 = PRODUCT_DEFINITION ( 'NEZNÁMÝ', '', #87, #226 ) ;
#215 = CARTESIAN_POINT ( 'NONE',  ( 3.000000000000000444, 3.673940397442060361E-16, 160.0000000000000000 ) ) ;
#216 = ORIENTED_EDGE ( 'NONE', *, *, #253, .T. ) ;
#217 = AXIS2_PLACEMENT_3D ( 'NONE', #131, #146, #69 ) ;
#218 = ORIENTED_EDGE ( 'NONE', *, *, #148, .F. ) ;
#219 = CYLINDRICAL_SURFACE ( 'NONE', #119, 3.000000000000000444 ) ;
#220 = EDGE_CURVE ( 'NONE', #171, #103, #251, .T. ) ;
#221 = APPROVAL_ROLE ( '' ) ;
#222 = DIRECTION ( 'NONE',  ( 1.000000000000000000, 0.000000000000000000, 0.000000000000000000 ) ) ;
#223 = CIRCLE ( 'NONE', #79, 6.000000000000000888 ) ;
#224 = CARTESIAN_POINT ( 'NONE',  ( 6.000000000000000888, 7.347880794884120722E-16, 5.000000000000000000 ) ) ;
#225 = PERSON_AND_ORGANIZATION_ROLE ( 'design_supplier' ) ;
#226 = DESIGN_CONTEXT ( 'detailed design', #49, 'design' ) ;
#227 = CARTESIAN_POINT ( 'NONE',  ( 0.000000000000000000, 0.000000000000000000, 0.000000000000000000 ) ) ;
#228 = EDGE_CURVE ( 'NONE', #96, #39, #59, .T. ) ;
#229 = ADVANCED_BREP_SHAPE_REPRESENTATION ( '6c08', ( #123, #145 ), #127 ) ;
#230 = AXIS2_PLACEMENT_3D ( 'NONE', #192, #11, #209 ) ;
#231 = SHAPE_DEFINITION_REPRESENTATION ( #208, #229 ) ;
#232 = ORIENTED_EDGE ( 'NONE', *, *, #234, .F. ) ;
#233 = CARTESIAN_POINT ( 'NONE',  ( -3.000000000000000444, 0.000000000000000000, 160.0000000000000000 ) ) ;
#234 = EDGE_CURVE ( 'NONE', #1, #138, #33, .T. ) ;
#235 = CARTESIAN_POINT ( 'NONE',  ( 0.000000000000000000, 0.000000000000000000, 5.000000000000000000 ) ) ;
#236 = CC_DESIGN_APPROVAL ( #15, ( #87 ) ) ;
#237 = DIRECTION ( 'NONE',  ( 0.000000000000000000, 0.000000000000000000, 1.000000000000000000 ) ) ;
#238 = EDGE_CURVE ( 'NONE', #152, #1, #241, .T. ) ;
#239 = EDGE_LOOP ( 'NONE', ( #66, #255 ) ) ;
#240 = ORIENTED_EDGE ( 'NONE', *, *, #65, .T. ) ;
#241 = CIRCLE ( 'NONE', #77, 3.000000000000000444 ) ;
#242 = DIRECTION ( 'NONE',  ( 0.000000000000000000, 0.000000000000000000, 1.000000000000000000 ) ) ;
#243 = LOCAL_TIME ( 15, 7, 45.00000000000000000, #182 ) ;
#244 = EDGE_CURVE ( 'NONE', #138, #41, #168, .T. ) ;
#245 = DATE_AND_TIME ( #32, #243 ) ;
#246 = FACE_OUTER_BOUND ( 'NONE', #4, .T. ) ;
#247 =( LENGTH_UNIT ( ) NAMED_UNIT ( * ) SI_UNIT ( .MILLI., .METRE. ) );
#248 = AXIS2_PLACEMENT_3D ( 'NONE', #113, #149, #94 ) ;
#249 = CARTESIAN_POINT ( 'NONE',  ( -3.000000000000000444, 0.000000000000000000, 160.0000000000000000 ) ) ;
#250 = ADVANCED_FACE ( 'NONE', ( #136 ), #78, .T. ) ;
#251 = CIRCLE ( 'NONE', #26, 6.000000000000000888 ) ;
#252 = PLANE ( 'NONE',  #139 ) ;
#253 = EDGE_CURVE ( 'NONE', #103, #39, #35, .T. ) ;
#254 = CC_DESIGN_PERSON_AND_ORGANIZATION_ASSIGNMENT ( #180, #132, ( #87 ) ) ;
#255 = ORIENTED_EDGE ( 'NONE', *, *, #220, .T. ) ;
ENDSEC;
END-ISO-10303-21;
