ISO-10303-21;
HEADER;
FILE_DESCRIPTION (( 'STEP AP203' ),
    '1' );
FILE_NAME ('d5a1.STEP',
    '2023-01-31T14:50:33',
    ( '' ),
    ( '' ),
    'SwSTEP 2.0',
    'SolidWorks 2019',
    '' );
FILE_SCHEMA (( 'CONFIG_CONTROL_DESIGN' ));
ENDSEC;

DATA;
#1 = CIRCLE ( 'NONE', #178, 0.5000000000000000000 ) ;
#2 = LOCAL_TIME ( 15, 50, 33.00000000000000000, #42 ) ;
#3 = EDGE_CURVE ( 'NONE', #215, #146, #52, .T. ) ;
#4 = CARTESIAN_POINT ( 'NONE',  ( 0.000000000000000000, 0.000000000000000000, 0.000000000000000000 ) ) ;
#5 = APPROVAL_STATUS ( 'not_yet_approved' ) ;
#6 = DIRECTION ( 'NONE',  ( 1.000000000000000000, 0.000000000000000000, 0.000000000000000000 ) ) ;
#7 = FACE_OUTER_BOUND ( 'NONE', #177, .T. ) ;
#8 = CC_DESIGN_APPROVAL ( #95, ( #144 ) ) ;
#9 = DIRECTION ( 'NONE',  ( -0.000000000000000000, -0.000000000000000000, -1.000000000000000000 ) ) ;
#10 = DIRECTION ( 'NONE',  ( 0.000000000000000000, 0.000000000000000000, 1.000000000000000000 ) ) ;
#11 = FACE_OUTER_BOUND ( 'NONE', #218, .T. ) ;
#12 = DIRECTION ( 'NONE',  ( 0.000000000000000000, 0.000000000000000000, 1.000000000000000000 ) ) ;
#13 = LOCAL_TIME ( 15, 50, 33.00000000000000000, #106 ) ;
#14 = EDGE_CURVE ( 'NONE', #253, #204, #39, .T. ) ;
#15 = CALENDAR_DATE ( 2023, 31, 1 ) ;
#16 = ORIENTED_EDGE ( 'NONE', *, *, #85, .T. ) ;
#17 = APPLICATION_PROTOCOL_DEFINITION ( 'international standard', 'config_control_design', 1994, #249 ) ;
#18 = DATE_AND_TIME ( #93, #233 ) ;
#19 = COORDINATED_UNIVERSAL_TIME_OFFSET ( 1, 0, .AHEAD. ) ;
#20 = ADVANCED_FACE ( 'NONE', ( #156 ), #89, .T. ) ;
#21 = PERSON_AND_ORGANIZATION_ROLE ( 'design_supplier' ) ;
#22 = CARTESIAN_POINT ( 'NONE',  ( -1.250000000000000000, 0.000000000000000000, 1.199999999999999956 ) ) ;
#23 = ORIENTED_EDGE ( 'NONE', *, *, #134, .T. ) ;
#24 = APPROVAL_DATE_TIME ( #166, #95 ) ;
#25 = FACE_BOUND ( 'NONE', #104, .T. ) ;
#26 = VECTOR ( 'NONE', #30, 1000.000000000000000 ) ;
#27 = LINE ( 'NONE', #70, #120 ) ;
#28 = CC_DESIGN_SECURITY_CLASSIFICATION ( #144, ( #102 ) ) ;
#29 = FACE_OUTER_BOUND ( 'NONE', #164, .T. ) ;
#30 = DIRECTION ( 'NONE',  ( -0.000000000000000000, -0.000000000000000000, -1.000000000000000000 ) ) ;
#31 = LOCAL_TIME ( 15, 50, 33.00000000000000000, #90 ) ;
#32 = ADVANCED_FACE ( 'NONE', ( #25, #212 ), #190, .T. ) ;
#33 = CARTESIAN_POINT ( 'NONE',  ( 0.000000000000000000, 0.000000000000000000, 1.199999999999999956 ) ) ;
#34 = DESIGN_CONTEXT ( 'detailed design', #249, 'design' ) ;
#35 = ORIENTED_EDGE ( 'NONE', *, *, #14, .F. ) ;
#36 = MECHANICAL_CONTEXT ( 'NONE', #108, 'mechanical' ) ;
#37 = CARTESIAN_POINT ( 'NONE',  ( 1.250000000000000000, 1.530808498934191571E-16, 1.199999999999999956 ) ) ;
#38 = EDGE_LOOP ( 'NONE', ( #99, #195 ) ) ;
#39 = CIRCLE ( 'NONE', #248, 0.5000000000000000000 ) ;
#40 = CC_DESIGN_DATE_AND_TIME_ASSIGNMENT ( #18, #217, ( #219 ) ) ;
#41 = AXIS2_PLACEMENT_3D ( 'NONE', #55, #72, #170 ) ;
#42 = COORDINATED_UNIVERSAL_TIME_OFFSET ( 1, 0, .AHEAD. ) ;
#43 = ORIENTED_EDGE ( 'NONE', *, *, #222, .F. ) ;
#44 = APPROVAL_DATE_TIME ( #160, #150 ) ;
#45 = VECTOR ( 'NONE', #136, 1000.000000000000000 ) ;
#46 = AXIS2_PLACEMENT_3D ( 'NONE', #135, #10, #228 ) ;
#47 = ORIENTED_EDGE ( 'NONE', *, *, #236, .T. ) ;
#48 = PRODUCT_RELATED_PRODUCT_CATEGORY ( 'detail', '', ( #206 ) ) ;
#49 = DATE_TIME_ROLE ( 'classification_date' ) ;
#50 = CARTESIAN_POINT ( 'NONE',  ( 0.000000000000000000, 0.000000000000000000, 100.0000000000000000 ) ) ;
#51 = FACE_OUTER_BOUND ( 'NONE', #38, .T. ) ;
#52 = LINE ( 'NONE', #37, #45 ) ;
#53 = DIRECTION ( 'NONE',  ( -1.000000000000000000, 0.000000000000000000, 0.000000000000000000 ) ) ;
#54 = CARTESIAN_POINT ( 'NONE',  ( 1.250000000000000000, 1.530808498934191571E-16, 0.000000000000000000 ) ) ;
#55 = CARTESIAN_POINT ( 'NONE',  ( 0.000000000000000000, 0.000000000000000000, 100.0000000000000000 ) ) ;
#56 = DIRECTION ( 'NONE',  ( 1.000000000000000000, 0.000000000000000000, 0.000000000000000000 ) ) ;
#57 = VECTOR ( 'NONE', #165, 1000.000000000000000 ) ;
#58 = DIRECTION ( 'NONE',  ( -1.000000000000000000, 0.000000000000000000, 0.000000000000000000 ) ) ;
#59 = ORIENTED_EDGE ( 'NONE', *, *, #123, .T. ) ;
#60 = CARTESIAN_POINT ( 'NONE',  ( -0.5000000000000000000, 0.000000000000000000, 100.0000000000000000 ) ) ;
#61 = VERTEX_POINT ( 'NONE', #181 ) ;
#62 = ORIENTED_EDGE ( 'NONE', *, *, #141, .F. ) ;
#63 = APPROVAL_ROLE ( '' ) ;
#64 = APPROVAL_STATUS ( 'not_yet_approved' ) ;
#65 = CALENDAR_DATE ( 2023, 31, 1 ) ;
#66 = LINE ( 'NONE', #22, #57 ) ;
#67 = ORIENTED_EDGE ( 'NONE', *, *, #179, .T. ) ;
#68 = ADVANCED_FACE ( 'NONE', ( #11 ), #101, .F. ) ;
#69 = CARTESIAN_POINT ( 'NONE',  ( 0.000000000000000000, 0.000000000000000000, 1.199999999999999956 ) ) ;
#70 = CARTESIAN_POINT ( 'NONE',  ( 0.5000000000000000000, 6.123233995736766036E-17, 100.0000000000000000 ) ) ;
#71 = PERSON_AND_ORGANIZATION ( #119, #97 ) ;
#72 = DIRECTION ( 'NONE',  ( 0.000000000000000000, 0.000000000000000000, 1.000000000000000000 ) ) ;
#73 = ORIENTED_EDGE ( 'NONE', *, *, #123, .F. ) ;
#74 = ADVANCED_FACE ( 'NONE', ( #51 ), #205, .T. ) ;
#75 = CARTESIAN_POINT ( 'NONE',  ( 0.000000000000000000, 0.000000000000000000, 100.0000000000000000 ) ) ;
#76 = UNCERTAINTY_MEASURE_WITH_UNIT (LENGTH_MEASURE( 1.000000000000000082E-05 ), #137, 'distance_accuracy_value', 'NONE');
#77 = CYLINDRICAL_SURFACE ( 'NONE', #84, 0.5000000000000000000 ) ;
#78 = AXIS2_PLACEMENT_3D ( 'NONE', #226, #9, #53 ) ;
#79 = EDGE_CURVE ( 'NONE', #61, #168, #66, .T. ) ;
#80 = EDGE_LOOP ( 'NONE', ( #126, #197, #16, #47 ) ) ;
#81 = ORIENTED_EDGE ( 'NONE', *, *, #141, .T. ) ;
#82 = APPROVAL_ROLE ( '' ) ;
#83 = PERSON_AND_ORGANIZATION ( #119, #97 ) ;
#84 = AXIS2_PLACEMENT_3D ( 'NONE', #75, #158, #232 ) ;
#85 = EDGE_CURVE ( 'NONE', #204, #239, #209, .T. ) ;
#86 = AXIS2_PLACEMENT_3D ( 'NONE', #171, #229, #56 ) ;
#87 = VERTEX_POINT ( 'NONE', #250 ) ;
#88 = APPROVAL_ROLE ( '' ) ;
#89 = CYLINDRICAL_SURFACE ( 'NONE', #182, 1.250000000000000000 ) ;
#90 = COORDINATED_UNIVERSAL_TIME_OFFSET ( 1, 0, .AHEAD. ) ;
#91 = APPROVAL_PERSON_ORGANIZATION ( #83, #150, #63 ) ;
#92 = CYLINDRICAL_SURFACE ( 'NONE', #78, 0.5000000000000000000 ) ;
#93 = CALENDAR_DATE ( 2023, 31, 1 ) ;
#94 = CARTESIAN_POINT ( 'NONE',  ( 0.000000000000000000, 0.000000000000000000, 0.000000000000000000 ) ) ;
#95 = APPROVAL ( #5, 'NEURÈENÝ' ) ;
#96 = CARTESIAN_POINT ( 'NONE',  ( 1.250000000000000000, 1.530808498934191571E-16, 1.199999999999999956 ) ) ;
#97 = ORGANIZATION ( 'NEURÈENÝ', 'NEURÈENÝ', '' ) ;
#98 = DIRECTION ( 'NONE',  ( 1.000000000000000000, 0.000000000000000000, 0.000000000000000000 ) ) ;
#99 = ORIENTED_EDGE ( 'NONE', *, *, #193, .T. ) ;
#100 = COORDINATED_UNIVERSAL_TIME_OFFSET ( 1, 0, .AHEAD. ) ;
#101 = PLANE ( 'NONE',  #143 ) ;
#102 = PRODUCT_DEFINITION_FORMATION_WITH_SPECIFIED_SOURCE ( 'LIBOVOLNÝ', '', #206, .NOT_KNOWN. ) ;
#103 = ORIENTED_EDGE ( 'NONE', *, *, #179, .F. ) ;
#104 = EDGE_LOOP ( 'NONE', ( #180, #62 ) ) ;
#105 = DATE_AND_TIME ( #65, #13 ) ;
#106 = COORDINATED_UNIVERSAL_TIME_OFFSET ( 1, 0, .AHEAD. ) ;
#107 = APPROVAL ( #64, 'NEURÈENÝ' ) ;
#108 = APPLICATION_CONTEXT ( 'configuration controlled 3d designs of mechanical parts and assemblies' ) ;
#109 = DIRECTION ( 'NONE',  ( 1.000000000000000000, 0.000000000000000000, 0.000000000000000000 ) ) ;
#110 = DIRECTION ( 'NONE',  ( 1.000000000000000000, 0.000000000000000000, -0.000000000000000000 ) ) ;
#111 = CARTESIAN_POINT ( 'NONE',  ( -0.5000000000000000000, 0.000000000000000000, 1.199999999999999956 ) ) ;
#112 = CIRCLE ( 'NONE', #46, 0.5000000000000000000 ) ;
#113 = ADVANCED_FACE ( 'NONE', ( #29 ), #77, .T. ) ;
#114 = CARTESIAN_POINT ( 'NONE',  ( -1.250000000000000000, 0.000000000000000000, 0.000000000000000000 ) ) ;
#115 = MANIFOLD_SOLID_BREP ( 'Pøidat vysunutím3', #163 ) ;
#116 = ADVANCED_BREP_SHAPE_REPRESENTATION ( 'd5a1', ( #115, #161 ), #127 ) ;
#117 = CARTESIAN_POINT ( 'NONE',  ( -0.5000000000000000000, 0.000000000000000000, 100.0000000000000000 ) ) ;
#118 = CIRCLE ( 'NONE', #86, 1.250000000000000000 ) ;
#119 = PERSON ( 'NEURÈENÝ', 'NEURÈENÝ', 'NEURÈENÝ', ('NEURÈENÝ'), ('NEURÈENÝ'), ('NEURÈENÝ') ) ;
#120 = VECTOR ( 'NONE', #211, 1000.000000000000000 ) ;
#121 = CALENDAR_DATE ( 2023, 31, 1 ) ;
#122 = ORIENTED_EDGE ( 'NONE', *, *, #3, .T. ) ;
#123 = EDGE_CURVE ( 'NONE', #146, #168, #194, .T. ) ;
#124 = PERSON_AND_ORGANIZATION ( #119, #97 ) ;
#125 = AXIS2_PLACEMENT_3D ( 'NONE', #210, #186, #247 ) ;
#126 = ORIENTED_EDGE ( 'NONE', *, *, #134, .F. ) ;
#127 =( GEOMETRIC_REPRESENTATION_CONTEXT ( 3 ) GLOBAL_UNCERTAINTY_ASSIGNED_CONTEXT ( ( #76 ) ) GLOBAL_UNIT_ASSIGNED_CONTEXT ( ( #137, #246, #151 ) ) REPRESENTATION_CONTEXT ( 'NONE', 'WORKASPACE' ) );
#128 = CC_DESIGN_DATE_AND_TIME_ASSIGNMENT ( #105, #49, ( #144 ) ) ;
#129 = DIRECTION ( 'NONE',  ( 0.000000000000000000, 0.000000000000000000, 1.000000000000000000 ) ) ;
#130 = CARTESIAN_POINT ( 'NONE',  ( 0.5000000000000000000, 6.123233995736766036E-17, 100.0000000000000000 ) ) ;
#131 = CC_DESIGN_PERSON_AND_ORGANIZATION_ASSIGNMENT ( #124, #199, ( #219 ) ) ;
#132 = DIRECTION ( 'NONE',  ( 0.000000000000000000, 0.000000000000000000, 1.000000000000000000 ) ) ;
#133 = AXIS2_PLACEMENT_3D ( 'NONE', #241, #129, #203 ) ;
#134 = EDGE_CURVE ( 'NONE', #253, #87, #27, .T. ) ;
#135 = CARTESIAN_POINT ( 'NONE',  ( 0.000000000000000000, 0.000000000000000000, 1.199999999999999956 ) ) ;
#136 = DIRECTION ( 'NONE',  ( -0.000000000000000000, -0.000000000000000000, -1.000000000000000000 ) ) ;
#137 =( LENGTH_UNIT ( ) NAMED_UNIT ( * ) SI_UNIT ( .MILLI., .METRE. ) );
#138 = DIRECTION ( 'NONE',  ( 0.000000000000000000, 0.000000000000000000, 1.000000000000000000 ) ) ;
#139 = ORIENTED_EDGE ( 'NONE', *, *, #251, .T. ) ;
#140 = APPROVAL_DATE_TIME ( #187, #107 ) ;
#141 = EDGE_CURVE ( 'NONE', #87, #239, #1, .T. ) ;
#142 = LOCAL_TIME ( 15, 50, 33.00000000000000000, #100 ) ;
#143 = AXIS2_PLACEMENT_3D ( 'NONE', #4, #243, #183 ) ;
#144 = SECURITY_CLASSIFICATION ( '', '', #220 ) ;
#145 = ORIENTED_EDGE ( 'NONE', *, *, #79, .F. ) ;
#146 = VERTEX_POINT ( 'NONE', #54 ) ;
#147 = CARTESIAN_POINT ( 'NONE',  ( 0.000000000000000000, 0.000000000000000000, 1.199999999999999956 ) ) ;
#148 = CALENDAR_DATE ( 2023, 31, 1 ) ;
#149 = PERSON_AND_ORGANIZATION ( #119, #97 ) ;
#150 = APPROVAL ( #238, 'NEURÈENÝ' ) ;
#151 =( NAMED_UNIT ( * ) SI_UNIT ( $, .STERADIAN. ) SOLID_ANGLE_UNIT ( ) );
#152 = DIRECTION ( 'NONE',  ( 0.000000000000000000, 0.000000000000000000, 1.000000000000000000 ) ) ;
#153 = AXIS2_PLACEMENT_3D ( 'NONE', #94, #154, #98 ) ;
#154 = DIRECTION ( 'NONE',  ( 0.000000000000000000, 0.000000000000000000, 1.000000000000000000 ) ) ;
#155 = DIRECTION ( 'NONE',  ( 0.000000000000000000, 0.000000000000000000, 1.000000000000000000 ) ) ;
#156 = FACE_OUTER_BOUND ( 'NONE', #167, .T. ) ;
#157 = CC_DESIGN_PERSON_AND_ORGANIZATION_ASSIGNMENT ( #254, #216, ( #102 ) ) ;
#158 = DIRECTION ( 'NONE',  ( -0.000000000000000000, -0.000000000000000000, -1.000000000000000000 ) ) ;
#159 = APPROVAL_PERSON_ORGANIZATION ( #71, #107, #82 ) ;
#160 = DATE_AND_TIME ( #15, #142 ) ;
#161 = AXIS2_PLACEMENT_3D ( 'NONE', #162, #214, #176 ) ;
#162 = CARTESIAN_POINT ( 'NONE',  ( 0.000000000000000000, 0.000000000000000000, 0.000000000000000000 ) ) ;
#163 = CLOSED_SHELL ( 'NONE', ( #113, #169, #20, #32, #68, #175, #74 ) ) ;
#164 = EDGE_LOOP ( 'NONE', ( #35, #23, #81, #201 ) ) ;
#165 = DIRECTION ( 'NONE',  ( -0.000000000000000000, -0.000000000000000000, -1.000000000000000000 ) ) ;
#166 = DATE_AND_TIME ( #148, #31 ) ;
#167 = EDGE_LOOP ( 'NONE', ( #223, #103, #213, #225 ) ) ;
#168 = VERTEX_POINT ( 'NONE', #114 ) ;
#169 = ADVANCED_FACE ( 'NONE', ( #7 ), #208, .T. ) ;
#170 = DIRECTION ( 'NONE',  ( 1.000000000000000000, 0.000000000000000000, 0.000000000000000000 ) ) ;
#171 = CARTESIAN_POINT ( 'NONE',  ( 0.000000000000000000, 0.000000000000000000, 1.199999999999999956 ) ) ;
#172 = CC_DESIGN_PERSON_AND_ORGANIZATION_ASSIGNMENT ( #242, #224, ( #144 ) ) ;
#173 = FACE_OUTER_BOUND ( 'NONE', #80, .T. ) ;
#174 = EDGE_LOOP ( 'NONE', ( #67, #139 ) ) ;
#175 = ADVANCED_FACE ( 'NONE', ( #173 ), #92, .T. ) ;
#176 = DIRECTION ( 'NONE',  ( 1.000000000000000000, 0.000000000000000000, 0.000000000000000000 ) ) ;
#177 = EDGE_LOOP ( 'NONE', ( #234, #122, #59, #145 ) ) ;
#178 = AXIS2_PLACEMENT_3D ( 'NONE', #191, #152, #6 ) ;
#179 = EDGE_CURVE ( 'NONE', #61, #215, #196, .T. ) ;
#180 = ORIENTED_EDGE ( 'NONE', *, *, #236, .F. ) ;
#181 = CARTESIAN_POINT ( 'NONE',  ( -1.250000000000000000, 0.000000000000000000, 1.199999999999999956 ) ) ;
#182 = AXIS2_PLACEMENT_3D ( 'NONE', #147, #231, #58 ) ;
#183 = DIRECTION ( 'NONE',  ( 1.000000000000000000, 0.000000000000000000, -0.000000000000000000 ) ) ;
#184 = CARTESIAN_POINT ( 'NONE',  ( 0.000000000000000000, 0.000000000000000000, 0.000000000000000000 ) ) ;
#185 = PRODUCT_DEFINITION_SHAPE ( 'NONE', 'NONE',  #219 ) ;
#186 = DIRECTION ( 'NONE',  ( -0.000000000000000000, -0.000000000000000000, -1.000000000000000000 ) ) ;
#187 = DATE_AND_TIME ( #121, #2 ) ;
#188 = APPLICATION_PROTOCOL_DEFINITION ( 'international standard', 'config_control_design', 1994, #108 ) ;
#189 = APPROVAL_PERSON_ORGANIZATION ( #149, #95, #88 ) ;
#190 = PLANE ( 'NONE',  #245 ) ;
#191 = CARTESIAN_POINT ( 'NONE',  ( 0.000000000000000000, 0.000000000000000000, 1.199999999999999956 ) ) ;
#192 = PERSON_AND_ORGANIZATION ( #119, #97 ) ;
#193 = EDGE_CURVE ( 'NONE', #204, #253, #202, .T. ) ;
#194 = CIRCLE ( 'NONE', #227, 1.250000000000000000 ) ;
#195 = ORIENTED_EDGE ( 'NONE', *, *, #14, .T. ) ;
#196 = CIRCLE ( 'NONE', #235, 1.250000000000000000 ) ;
#197 = ORIENTED_EDGE ( 'NONE', *, *, #193, .F. ) ;
#198 = PERSON_AND_ORGANIZATION_ROLE ( 'design_owner' ) ;
#199 = PERSON_AND_ORGANIZATION_ROLE ( 'creator' ) ;
#200 = CC_DESIGN_PERSON_AND_ORGANIZATION_ASSIGNMENT ( #237, #21, ( #102 ) ) ;
#201 = ORIENTED_EDGE ( 'NONE', *, *, #85, .F. ) ;
#202 = CIRCLE ( 'NONE', #41, 0.5000000000000000000 ) ;
#203 = DIRECTION ( 'NONE',  ( 1.000000000000000000, 0.000000000000000000, -0.000000000000000000 ) ) ;
#204 = VERTEX_POINT ( 'NONE', #60 ) ;
#205 = PLANE ( 'NONE',  #133 ) ;
#206 = PRODUCT ( 'd5a1', 'd5a1', '', ( #36 ) ) ;
#207 = CIRCLE ( 'NONE', #153, 1.250000000000000000 ) ;
#208 = CYLINDRICAL_SURFACE ( 'NONE', #125, 1.250000000000000000 ) ;
#209 = LINE ( 'NONE', #117, #26 ) ;
#210 = CARTESIAN_POINT ( 'NONE',  ( 0.000000000000000000, 0.000000000000000000, 1.199999999999999956 ) ) ;
#211 = DIRECTION ( 'NONE',  ( -0.000000000000000000, -0.000000000000000000, -1.000000000000000000 ) ) ;
#212 = FACE_OUTER_BOUND ( 'NONE', #174, .T. ) ;
#213 = ORIENTED_EDGE ( 'NONE', *, *, #79, .T. ) ;
#214 = DIRECTION ( 'NONE',  ( 0.000000000000000000, 0.000000000000000000, 1.000000000000000000 ) ) ;
#215 = VERTEX_POINT ( 'NONE', #96 ) ;
#216 = PERSON_AND_ORGANIZATION_ROLE ( 'creator' ) ;
#217 = DATE_TIME_ROLE ( 'creation_date' ) ;
#218 = EDGE_LOOP ( 'NONE', ( #43, #73 ) ) ;
#219 = PRODUCT_DEFINITION ( 'NEZNÁMÝ', '', #102, #34 ) ;
#220 = SECURITY_CLASSIFICATION_LEVEL ( 'unclassified' ) ;
#221 = CC_DESIGN_APPROVAL ( #150, ( #219 ) ) ;
#222 = EDGE_CURVE ( 'NONE', #168, #146, #207, .T. ) ;
#223 = ORIENTED_EDGE ( 'NONE', *, *, #3, .F. ) ;
#224 = PERSON_AND_ORGANIZATION_ROLE ( 'classification_officer' ) ;
#225 = ORIENTED_EDGE ( 'NONE', *, *, #222, .T. ) ;
#226 = CARTESIAN_POINT ( 'NONE',  ( 0.000000000000000000, 0.000000000000000000, 100.0000000000000000 ) ) ;
#227 = AXIS2_PLACEMENT_3D ( 'NONE', #184, #155, #230 ) ;
#228 = DIRECTION ( 'NONE',  ( 1.000000000000000000, 0.000000000000000000, 0.000000000000000000 ) ) ;
#229 = DIRECTION ( 'NONE',  ( 0.000000000000000000, 0.000000000000000000, 1.000000000000000000 ) ) ;
#230 = DIRECTION ( 'NONE',  ( 1.000000000000000000, 0.000000000000000000, 0.000000000000000000 ) ) ;
#231 = DIRECTION ( 'NONE',  ( -0.000000000000000000, -0.000000000000000000, -1.000000000000000000 ) ) ;
#232 = DIRECTION ( 'NONE',  ( -1.000000000000000000, 0.000000000000000000, 0.000000000000000000 ) ) ;
#233 = LOCAL_TIME ( 15, 50, 33.00000000000000000, #19 ) ;
#234 = ORIENTED_EDGE ( 'NONE', *, *, #251, .F. ) ;
#235 = AXIS2_PLACEMENT_3D ( 'NONE', #69, #132, #252 ) ;
#236 = EDGE_CURVE ( 'NONE', #239, #87, #112, .T. ) ;
#237 = PERSON_AND_ORGANIZATION ( #119, #97 ) ;
#238 = APPROVAL_STATUS ( 'not_yet_approved' ) ;
#239 = VERTEX_POINT ( 'NONE', #111 ) ;
#240 = CC_DESIGN_PERSON_AND_ORGANIZATION_ASSIGNMENT ( #192, #198, ( #206 ) ) ;
#241 = CARTESIAN_POINT ( 'NONE',  ( 0.000000000000000000, 0.000000000000000000, 100.0000000000000000 ) ) ;
#242 = PERSON_AND_ORGANIZATION ( #119, #97 ) ;
#243 = DIRECTION ( 'NONE',  ( 0.000000000000000000, 0.000000000000000000, 1.000000000000000000 ) ) ;
#244 = SHAPE_DEFINITION_REPRESENTATION ( #185, #116 ) ;
#245 = AXIS2_PLACEMENT_3D ( 'NONE', #33, #138, #110 ) ;
#246 =( NAMED_UNIT ( * ) PLANE_ANGLE_UNIT ( ) SI_UNIT ( $, .RADIAN. ) );
#247 = DIRECTION ( 'NONE',  ( -1.000000000000000000, 0.000000000000000000, 0.000000000000000000 ) ) ;
#248 = AXIS2_PLACEMENT_3D ( 'NONE', #50, #12, #109 ) ;
#249 = APPLICATION_CONTEXT ( 'configuration controlled 3d designs of mechanical parts and assemblies' ) ;
#250 = CARTESIAN_POINT ( 'NONE',  ( 0.5000000000000000000, 6.123233995736766036E-17, 1.199999999999999956 ) ) ;
#251 = EDGE_CURVE ( 'NONE', #215, #61, #118, .T. ) ;
#252 = DIRECTION ( 'NONE',  ( 1.000000000000000000, 0.000000000000000000, 0.000000000000000000 ) ) ;
#253 = VERTEX_POINT ( 'NONE', #130 ) ;
#254 = PERSON_AND_ORGANIZATION ( #119, #97 ) ;
#255 = CC_DESIGN_APPROVAL ( #107, ( #102 ) ) ;
ENDSEC;
END-ISO-10303-21;
