ISO-10303-21;
HEADER;
FILE_DESCRIPTION (( 'STEP AP203' ),
    '1' );
FILE_NAME ('1cdc.STEP',
    '2023-02-13T10:18:43',
    ( '' ),
    ( '' ),
    'SwSTEP 2.0',
    'SolidWorks 2019',
    '' );
FILE_SCHEMA (( 'CONFIG_CONTROL_DESIGN' ));
ENDSEC;

DATA;
#1 = DATE_AND_TIME ( #120, #21 ) ;
#2 = ORIENTED_EDGE ( 'NONE', *, *, #153, .F. ) ;
#3 = CARTESIAN_POINT ( 'NONE',  ( 6.250000000000000000, 7.654042494670957606E-16, 7.000000000000000000 ) ) ;
#4 = CARTESIAN_POINT ( 'NONE',  ( 0.000000000000000000, 0.000000000000000000, 7.000000000000000000 ) ) ;
#5 = VERTEX_POINT ( 'NONE', #194 ) ;
#6 = EDGE_CURVE ( 'NONE', #5, #243, #186, .T. ) ;
#7 = DIRECTION ( 'NONE',  ( -1.000000000000000000, 0.000000000000000000, 0.000000000000000000 ) ) ;
#8 = DIRECTION ( 'NONE',  ( 0.000000000000000000, 0.000000000000000000, 1.000000000000000000 ) ) ;
#9 = APPROVAL ( #212, 'NEURÈENÝ' ) ;
#10 =( LENGTH_UNIT ( ) NAMED_UNIT ( * ) SI_UNIT ( .MILLI., .METRE. ) );
#11 = CARTESIAN_POINT ( 'NONE',  ( -6.250000000000000000, 0.000000000000000000, 7.000000000000000000 ) ) ;
#12 = CARTESIAN_POINT ( 'NONE',  ( -9.000000000000000000, 0.000000000000000000, 7.000000000000000000 ) ) ;
#13 = CC_DESIGN_PERSON_AND_ORGANIZATION_ASSIGNMENT ( #136, #36, ( #132 ) ) ;
#14 = DIRECTION ( 'NONE',  ( 0.000000000000000000, 0.000000000000000000, 1.000000000000000000 ) ) ;
#15 = FACE_OUTER_BOUND ( 'NONE', #230, .T. ) ;
#16 = DIRECTION ( 'NONE',  ( 1.000000000000000000, 0.000000000000000000, 0.000000000000000000 ) ) ;
#17 = CIRCLE ( 'NONE', #224, 6.250000000000000000 ) ;
#18 = CYLINDRICAL_SURFACE ( 'NONE', #96, 9.000000000000000000 ) ;
#19 = CC_DESIGN_APPROVAL ( #9, ( #132 ) ) ;
#20 = APPROVAL_DATE_TIME ( #1, #147 ) ;
#21 = LOCAL_TIME ( 11, 18, 43.00000000000000000, #58 ) ;
#22 = DATE_AND_TIME ( #220, #115 ) ;
#23 = EDGE_LOOP ( 'NONE', ( #81, #59, #26, #47 ) ) ;
#24 = ORIENTED_EDGE ( 'NONE', *, *, #53, .F. ) ;
#25 = EDGE_CURVE ( 'NONE', #243, #5, #17, .T. ) ;
#26 = ORIENTED_EDGE ( 'NONE', *, *, #121, .T. ) ;
#27 = EDGE_CURVE ( 'NONE', #207, #241, #107, .T. ) ;
#28 = ORIENTED_EDGE ( 'NONE', *, *, #102, .T. ) ;
#29 = ORIENTED_EDGE ( 'NONE', *, *, #121, .F. ) ;
#30 = DIRECTION ( 'NONE',  ( 0.000000000000000000, 0.000000000000000000, 1.000000000000000000 ) ) ;
#31 = AXIS2_PLACEMENT_3D ( 'NONE', #250, #30, #198 ) ;
#32 = CARTESIAN_POINT ( 'NONE',  ( 0.000000000000000000, 0.000000000000000000, 0.000000000000000000 ) ) ;
#33 = CARTESIAN_POINT ( 'NONE',  ( 0.000000000000000000, 0.000000000000000000, 7.000000000000000000 ) ) ;
#34 = APPROVAL_ROLE ( '' ) ;
#35 = DIRECTION ( 'NONE',  ( 1.000000000000000000, 0.000000000000000000, 0.000000000000000000 ) ) ;
#36 = PERSON_AND_ORGANIZATION_ROLE ( 'design_supplier' ) ;
#37 = DIRECTION ( 'NONE',  ( -0.000000000000000000, -0.000000000000000000, -1.000000000000000000 ) ) ;
#38 = APPROVAL ( #181, 'NEURÈENÝ' ) ;
#39 = DIRECTION ( 'NONE',  ( 1.000000000000000000, 0.000000000000000000, -0.000000000000000000 ) ) ;
#40 = DIRECTION ( 'NONE',  ( 0.000000000000000000, 0.000000000000000000, 1.000000000000000000 ) ) ;
#41 = CIRCLE ( 'NONE', #80, 6.250000000000000000 ) ;
#42 = FACE_BOUND ( 'NONE', #43, .T. ) ;
#43 = EDGE_LOOP ( 'NONE', ( #205, #74 ) ) ;
#44 = CC_DESIGN_APPROVAL ( #38, ( #161 ) ) ;
#45 = PRODUCT_RELATED_PRODUCT_CATEGORY ( 'detail', '', ( #219 ) ) ;
#46 = ADVANCED_FACE ( 'NONE', ( #173 ), #60, .T. ) ;
#47 = ORIENTED_EDGE ( 'NONE', *, *, #102, .F. ) ;
#48 = FACE_OUTER_BOUND ( 'NONE', #23, .T. ) ;
#49 = DIRECTION ( 'NONE',  ( -1.000000000000000000, 0.000000000000000000, 0.000000000000000000 ) ) ;
#50 =( NAMED_UNIT ( * ) SI_UNIT ( $, .STERADIAN. ) SOLID_ANGLE_UNIT ( ) );
#51 = CARTESIAN_POINT ( 'NONE',  ( 9.000000000000000000, 1.102182119232617714E-15, 0.000000000000000000 ) ) ;
#52 = PERSON ( 'NEURÈENÝ', 'NEURÈENÝ', 'NEURÈENÝ', ('NEURÈENÝ'), ('NEURÈENÝ'), ('NEURÈENÝ') ) ;
#53 = EDGE_CURVE ( 'NONE', #247, #126, #72, .T. ) ;
#54 = DIRECTION ( 'NONE',  ( 0.000000000000000000, 0.000000000000000000, 1.000000000000000000 ) ) ;
#55 = CARTESIAN_POINT ( 'NONE',  ( 9.000000000000000000, 1.102182119232617714E-15, 7.000000000000000000 ) ) ;
#56 = APPLICATION_PROTOCOL_DEFINITION ( 'international standard', 'config_control_design', 1994, #151 ) ;
#57 = LOCAL_TIME ( 11, 18, 43.00000000000000000, #232 ) ;
#58 = COORDINATED_UNIVERSAL_TIME_OFFSET ( 1, 0, .AHEAD. ) ;
#59 = ORIENTED_EDGE ( 'NONE', *, *, #153, .T. ) ;
#60 = CYLINDRICAL_SURFACE ( 'NONE', #123, 6.250000000000000000 ) ;
#61 = PERSON_AND_ORGANIZATION_ROLE ( 'design_owner' ) ;
#62 = CALENDAR_DATE ( 2023, 13, 2 ) ;
#63 = APPLICATION_CONTEXT ( 'configuration controlled 3d designs of mechanical parts and assemblies' ) ;
#64 = APPROVAL_PERSON_ORGANIZATION ( #196, #9, #34 ) ;
#65 = APPROVAL_DATE_TIME ( #105, #38 ) ;
#66 = DIRECTION ( 'NONE',  ( 1.000000000000000000, 0.000000000000000000, 0.000000000000000000 ) ) ;
#67 = CC_DESIGN_PERSON_AND_ORGANIZATION_ASSIGNMENT ( #237, #201, ( #132 ) ) ;
#68 = LINE ( 'NONE', #55, #163 ) ;
#69 = PLANE ( 'NONE',  #255 ) ;
#70 = AXIS2_PLACEMENT_3D ( 'NONE', #245, #208, #66 ) ;
#71 = CC_DESIGN_APPROVAL ( #147, ( #242 ) ) ;
#72 = CIRCLE ( 'NONE', #70, 9.000000000000000000 ) ;
#73 = EDGE_CURVE ( 'NONE', #243, #241, #92, .T. ) ;
#74 = ORIENTED_EDGE ( 'NONE', *, *, #27, .F. ) ;
#75 = CARTESIAN_POINT ( 'NONE',  ( 0.000000000000000000, 0.000000000000000000, 125.0000000000000000 ) ) ;
#76 = DESIGN_CONTEXT ( 'detailed design', #151, 'design' ) ;
#77 = VERTEX_POINT ( 'NONE', #12 ) ;
#78 = DIRECTION ( 'NONE',  ( -1.000000000000000000, 0.000000000000000000, 0.000000000000000000 ) ) ;
#79 = DIRECTION ( 'NONE',  ( 1.000000000000000000, 0.000000000000000000, 0.000000000000000000 ) ) ;
#80 = AXIS2_PLACEMENT_3D ( 'NONE', #134, #213, #35 ) ;
#81 = ORIENTED_EDGE ( 'NONE', *, *, #227, .F. ) ;
#82 = CARTESIAN_POINT ( 'NONE',  ( 0.000000000000000000, 0.000000000000000000, 7.000000000000000000 ) ) ;
#83 = DIRECTION ( 'NONE',  ( 0.000000000000000000, 0.000000000000000000, 1.000000000000000000 ) ) ;
#84 = DIRECTION ( 'NONE',  ( 0.000000000000000000, 0.000000000000000000, 1.000000000000000000 ) ) ;
#85 = DIRECTION ( 'NONE',  ( 1.000000000000000000, 0.000000000000000000, 0.000000000000000000 ) ) ;
#86 = APPROVAL_PERSON_ORGANIZATION ( #164, #147, #185 ) ;
#87 =( NAMED_UNIT ( * ) PLANE_ANGLE_UNIT ( ) SI_UNIT ( $, .RADIAN. ) );
#88 = PERSON_AND_ORGANIZATION ( #52, #203 ) ;
#89 = CALENDAR_DATE ( 2023, 13, 2 ) ;
#90 = EDGE_CURVE ( 'NONE', #77, #168, #118, .T. ) ;
#91 = AXIS2_PLACEMENT_3D ( 'NONE', #82, #54, #16 ) ;
#92 = LINE ( 'NONE', #106, #206 ) ;
#93 = ADVANCED_FACE ( 'NONE', ( #233 ), #137, .T. ) ;
#94 = FACE_OUTER_BOUND ( 'NONE', #190, .T. ) ;
#95 = CC_DESIGN_SECURITY_CLASSIFICATION ( #242, ( #132 ) ) ;
#96 = AXIS2_PLACEMENT_3D ( 'NONE', #251, #155, #236 ) ;
#97 = FACE_OUTER_BOUND ( 'NONE', #211, .T. ) ;
#98 = ORIENTED_EDGE ( 'NONE', *, *, #6, .F. ) ;
#99 = MANIFOLD_SOLID_BREP ( 'Pøidat vysunutím3', #248 ) ;
#100 = ORIENTED_EDGE ( 'NONE', *, *, #73, .F. ) ;
#101 = ORIENTED_EDGE ( 'NONE', *, *, #90, .F. ) ;
#102 = EDGE_CURVE ( 'NONE', #77, #247, #110, .T. ) ;
#103 = PERSON_AND_ORGANIZATION ( #52, #203 ) ;
#104 = ORIENTED_EDGE ( 'NONE', *, *, #227, .T. ) ;
#105 = DATE_AND_TIME ( #159, #57 ) ;
#106 = CARTESIAN_POINT ( 'NONE',  ( -6.250000000000000000, 0.000000000000000000, 125.0000000000000000 ) ) ;
#107 = CIRCLE ( 'NONE', #170, 6.250000000000000000 ) ;
#108 = AXIS2_PLACEMENT_3D ( 'NONE', #216, #14, #231 ) ;
#109 = PLANE ( 'NONE',  #31 ) ;
#110 = LINE ( 'NONE', #160, #191 ) ;
#111 = CC_DESIGN_DATE_AND_TIME_ASSIGNMENT ( #22, #116, ( #242 ) ) ;
#112 = CARTESIAN_POINT ( 'NONE',  ( 9.000000000000000000, 1.102182119232617714E-15, 7.000000000000000000 ) ) ;
#113 = SECURITY_CLASSIFICATION_LEVEL ( 'unclassified' ) ;
#114 = PLANE ( 'NONE',  #119 ) ;
#115 = LOCAL_TIME ( 11, 18, 43.00000000000000000, #138 ) ;
#116 = DATE_TIME_ROLE ( 'classification_date' ) ;
#117 = DIRECTION ( 'NONE',  ( 1.000000000000000000, 0.000000000000000000, -0.000000000000000000 ) ) ;
#118 = CIRCLE ( 'NONE', #204, 9.000000000000000000 ) ;
#119 = AXIS2_PLACEMENT_3D ( 'NONE', #75, #40, #39 ) ;
#120 = CALENDAR_DATE ( 2023, 13, 2 ) ;
#121 = EDGE_CURVE ( 'NONE', #126, #247, #225, .T. ) ;
#122 = AXIS2_PLACEMENT_3D ( 'NONE', #228, #188, #7 ) ;
#123 = AXIS2_PLACEMENT_3D ( 'NONE', #148, #128, #78 ) ;
#124 = CARTESIAN_POINT ( 'NONE',  ( 0.000000000000000000, 0.000000000000000000, 125.0000000000000000 ) ) ;
#125 = ADVANCED_FACE ( 'NONE', ( #48 ), #18, .T. ) ;
#126 = VERTEX_POINT ( 'NONE', #51 ) ;
#127 = LOCAL_TIME ( 11, 18, 43.00000000000000000, #157 ) ;
#128 = DIRECTION ( 'NONE',  ( -0.000000000000000000, -0.000000000000000000, -1.000000000000000000 ) ) ;
#129 = DATE_TIME_ROLE ( 'creation_date' ) ;
#130 = APPLICATION_PROTOCOL_DEFINITION ( 'international standard', 'config_control_design', 1994, #63 ) ;
#131 = CC_DESIGN_PERSON_AND_ORGANIZATION_ASSIGNMENT ( #88, #135, ( #161 ) ) ;
#132 = PRODUCT_DEFINITION_FORMATION_WITH_SPECIFIED_SOURCE ( 'LIBOVOLNÝ', '', #219, .NOT_KNOWN. ) ;
#133 = MECHANICAL_CONTEXT ( 'NONE', #63, 'mechanical' ) ;
#134 = CARTESIAN_POINT ( 'NONE',  ( 0.000000000000000000, 0.000000000000000000, 7.000000000000000000 ) ) ;
#135 = PERSON_AND_ORGANIZATION_ROLE ( 'creator' ) ;
#136 = PERSON_AND_ORGANIZATION ( #52, #203 ) ;
#137 = CYLINDRICAL_SURFACE ( 'NONE', #235, 6.250000000000000000 ) ;
#138 = COORDINATED_UNIVERSAL_TIME_OFFSET ( 1, 0, .AHEAD. ) ;
#139 = DIRECTION ( 'NONE',  ( -0.000000000000000000, -0.000000000000000000, -1.000000000000000000 ) ) ;
#140 = ORIENTED_EDGE ( 'NONE', *, *, #53, .T. ) ;
#141 = CC_DESIGN_DATE_AND_TIME_ASSIGNMENT ( #234, #129, ( #161 ) ) ;
#142 = ADVANCED_BREP_SHAPE_REPRESENTATION ( '1cdc', ( #99, #179 ), #217 ) ;
#143 = ORIENTED_EDGE ( 'NONE', *, *, #90, .T. ) ;
#144 = ORIENTED_EDGE ( 'NONE', *, *, #25, .T. ) ;
#145 = ORIENTED_EDGE ( 'NONE', *, *, #27, .T. ) ;
#146 = ORIENTED_EDGE ( 'NONE', *, *, #180, .T. ) ;
#147 = APPROVAL ( #182, 'NEURÈENÝ' ) ;
#148 = CARTESIAN_POINT ( 'NONE',  ( 0.000000000000000000, 0.000000000000000000, 125.0000000000000000 ) ) ;
#149 = APPROVAL_PERSON_ORGANIZATION ( #154, #38, #249 ) ;
#150 = CARTESIAN_POINT ( 'NONE',  ( 0.000000000000000000, 0.000000000000000000, 125.0000000000000000 ) ) ;
#151 = APPLICATION_CONTEXT ( 'configuration controlled 3d designs of mechanical parts and assemblies' ) ;
#152 = DIRECTION ( 'NONE',  ( 0.000000000000000000, 0.000000000000000000, 1.000000000000000000 ) ) ;
#153 = EDGE_CURVE ( 'NONE', #168, #126, #68, .T. ) ;
#154 = PERSON_AND_ORGANIZATION ( #52, #203 ) ;
#155 = DIRECTION ( 'NONE',  ( -0.000000000000000000, -0.000000000000000000, -1.000000000000000000 ) ) ;
#156 = VECTOR ( 'NONE', #139, 1000.000000000000000 ) ;
#157 = COORDINATED_UNIVERSAL_TIME_OFFSET ( 1, 0, .AHEAD. ) ;
#158 = DIRECTION ( 'NONE',  ( 1.000000000000000000, 0.000000000000000000, 0.000000000000000000 ) ) ;
#159 = CALENDAR_DATE ( 2023, 13, 2 ) ;
#160 = CARTESIAN_POINT ( 'NONE',  ( -9.000000000000000000, 0.000000000000000000, 7.000000000000000000 ) ) ;
#161 = PRODUCT_DEFINITION ( 'NEZNÁMÝ', '', #132, #76 ) ;
#162 = CARTESIAN_POINT ( 'NONE',  ( 0.000000000000000000, 0.000000000000000000, 7.000000000000000000 ) ) ;
#163 = VECTOR ( 'NONE', #37, 1000.000000000000000 ) ;
#164 = PERSON_AND_ORGANIZATION ( #52, #203 ) ;
#165 = CC_DESIGN_PERSON_AND_ORGANIZATION_ASSIGNMENT ( #177, #61, ( #219 ) ) ;
#166 = EDGE_CURVE ( 'NONE', #241, #207, #41, .T. ) ;
#167 = ORIENTED_EDGE ( 'NONE', *, *, #25, .F. ) ;
#168 = VERTEX_POINT ( 'NONE', #112 ) ;
#169 = ADVANCED_FACE ( 'NONE', ( #15 ), #114, .T. ) ;
#170 = AXIS2_PLACEMENT_3D ( 'NONE', #4, #83, #171 ) ;
#171 = DIRECTION ( 'NONE',  ( 1.000000000000000000, 0.000000000000000000, 0.000000000000000000 ) ) ;
#172 = ADVANCED_FACE ( 'NONE', ( #42, #94 ), #69, .T. ) ;
#173 = FACE_OUTER_BOUND ( 'NONE', #222, .T. ) ;
#174 = PERSON_AND_ORGANIZATION_ROLE ( 'classification_officer' ) ;
#175 = ORIENTED_EDGE ( 'NONE', *, *, #180, .F. ) ;
#176 = CIRCLE ( 'NONE', #91, 9.000000000000000000 ) ;
#177 = PERSON_AND_ORGANIZATION ( #52, #203 ) ;
#178 = DATE_AND_TIME ( #89, #127 ) ;
#179 = AXIS2_PLACEMENT_3D ( 'NONE', #32, #84, #252 ) ;
#180 = EDGE_CURVE ( 'NONE', #5, #207, #183, .T. ) ;
#181 = APPROVAL_STATUS ( 'not_yet_approved' ) ;
#182 = APPROVAL_STATUS ( 'not_yet_approved' ) ;
#183 = LINE ( 'NONE', #254, #156 ) ;
#184 = UNCERTAINTY_MEASURE_WITH_UNIT (LENGTH_MEASURE( 1.000000000000000082E-05 ), #10, 'distance_accuracy_value', 'NONE');
#185 = APPROVAL_ROLE ( '' ) ;
#186 = CIRCLE ( 'NONE', #197, 6.250000000000000000 ) ;
#187 = ORIENTED_EDGE ( 'NONE', *, *, #6, .T. ) ;
#188 = DIRECTION ( 'NONE',  ( -0.000000000000000000, -0.000000000000000000, -1.000000000000000000 ) ) ;
#189 = DIRECTION ( 'NONE',  ( 0.000000000000000000, 0.000000000000000000, 1.000000000000000000 ) ) ;
#190 = EDGE_LOOP ( 'NONE', ( #143, #104 ) ) ;
#191 = VECTOR ( 'NONE', #199, 1000.000000000000000 ) ;
#192 = LOCAL_TIME ( 11, 18, 43.00000000000000000, #214 ) ;
#193 = ORIENTED_EDGE ( 'NONE', *, *, #73, .T. ) ;
#194 = CARTESIAN_POINT ( 'NONE',  ( 6.250000000000000000, 7.654042494670957606E-16, 125.0000000000000000 ) ) ;
#195 = CARTESIAN_POINT ( 'NONE',  ( 0.000000000000000000, 0.000000000000000000, 125.0000000000000000 ) ) ;
#196 = PERSON_AND_ORGANIZATION ( #52, #203 ) ;
#197 = AXIS2_PLACEMENT_3D ( 'NONE', #124, #8, #79 ) ;
#198 = DIRECTION ( 'NONE',  ( 1.000000000000000000, 0.000000000000000000, -0.000000000000000000 ) ) ;
#199 = DIRECTION ( 'NONE',  ( -0.000000000000000000, -0.000000000000000000, -1.000000000000000000 ) ) ;
#200 = FACE_OUTER_BOUND ( 'NONE', #229, .T. ) ;
#201 = PERSON_AND_ORGANIZATION_ROLE ( 'creator' ) ;
#202 = CC_DESIGN_PERSON_AND_ORGANIZATION_ASSIGNMENT ( #103, #174, ( #242 ) ) ;
#203 = ORGANIZATION ( 'NEURÈENÝ', 'NEURÈENÝ', '' ) ;
#204 = AXIS2_PLACEMENT_3D ( 'NONE', #33, #152, #158 ) ;
#205 = ORIENTED_EDGE ( 'NONE', *, *, #166, .F. ) ;
#206 = VECTOR ( 'NONE', #238, 1000.000000000000000 ) ;
#207 = VERTEX_POINT ( 'NONE', #3 ) ;
#208 = DIRECTION ( 'NONE',  ( 0.000000000000000000, 0.000000000000000000, 1.000000000000000000 ) ) ;
#209 = APPROVAL_DATE_TIME ( #178, #9 ) ;
#210 = DIRECTION ( 'NONE',  ( -0.000000000000000000, -0.000000000000000000, -1.000000000000000000 ) ) ;
#211 = EDGE_LOOP ( 'NONE', ( #2, #101, #28, #140 ) ) ;
#212 = APPROVAL_STATUS ( 'not_yet_approved' ) ;
#213 = DIRECTION ( 'NONE',  ( 0.000000000000000000, 0.000000000000000000, 1.000000000000000000 ) ) ;
#214 = COORDINATED_UNIVERSAL_TIME_OFFSET ( 1, 0, .AHEAD. ) ;
#215 = CARTESIAN_POINT ( 'NONE',  ( -9.000000000000000000, 0.000000000000000000, 0.000000000000000000 ) ) ;
#216 = CARTESIAN_POINT ( 'NONE',  ( 0.000000000000000000, 0.000000000000000000, 0.000000000000000000 ) ) ;
#217 =( GEOMETRIC_REPRESENTATION_CONTEXT ( 3 ) GLOBAL_UNCERTAINTY_ASSIGNED_CONTEXT ( ( #184 ) ) GLOBAL_UNIT_ASSIGNED_CONTEXT ( ( #10, #87, #50 ) ) REPRESENTATION_CONTEXT ( 'NONE', 'WORKASPACE' ) );
#218 = SHAPE_DEFINITION_REPRESENTATION ( #244, #142 ) ;
#219 = PRODUCT ( '1cdc', '1cdc', '', ( #133 ) ) ;
#220 = CALENDAR_DATE ( 2023, 13, 2 ) ;
#221 = ADVANCED_FACE ( 'NONE', ( #97 ), #226, .T. ) ;
#222 = EDGE_LOOP ( 'NONE', ( #98, #146, #145, #100 ) ) ;
#223 = ORIENTED_EDGE ( 'NONE', *, *, #166, .T. ) ;
#224 = AXIS2_PLACEMENT_3D ( 'NONE', #195, #189, #85 ) ;
#225 = CIRCLE ( 'NONE', #108, 9.000000000000000000 ) ;
#226 = CYLINDRICAL_SURFACE ( 'NONE', #122, 9.000000000000000000 ) ;
#227 = EDGE_CURVE ( 'NONE', #168, #77, #176, .T. ) ;
#228 = CARTESIAN_POINT ( 'NONE',  ( 0.000000000000000000, 0.000000000000000000, 7.000000000000000000 ) ) ;
#229 = EDGE_LOOP ( 'NONE', ( #24, #29 ) ) ;
#230 = EDGE_LOOP ( 'NONE', ( #144, #187 ) ) ;
#231 = DIRECTION ( 'NONE',  ( 1.000000000000000000, 0.000000000000000000, 0.000000000000000000 ) ) ;
#232 = COORDINATED_UNIVERSAL_TIME_OFFSET ( 1, 0, .AHEAD. ) ;
#233 = FACE_OUTER_BOUND ( 'NONE', #240, .T. ) ;
#234 = DATE_AND_TIME ( #62, #192 ) ;
#235 = AXIS2_PLACEMENT_3D ( 'NONE', #150, #210, #49 ) ;
#236 = DIRECTION ( 'NONE',  ( -1.000000000000000000, 0.000000000000000000, 0.000000000000000000 ) ) ;
#237 = PERSON_AND_ORGANIZATION ( #52, #203 ) ;
#238 = DIRECTION ( 'NONE',  ( -0.000000000000000000, -0.000000000000000000, -1.000000000000000000 ) ) ;
#239 = DIRECTION ( 'NONE',  ( 0.000000000000000000, 0.000000000000000000, 1.000000000000000000 ) ) ;
#240 = EDGE_LOOP ( 'NONE', ( #175, #167, #193, #223 ) ) ;
#241 = VERTEX_POINT ( 'NONE', #11 ) ;
#242 = SECURITY_CLASSIFICATION ( '', '', #113 ) ;
#243 = VERTEX_POINT ( 'NONE', #253 ) ;
#244 = PRODUCT_DEFINITION_SHAPE ( 'NONE', 'NONE',  #161 ) ;
#245 = CARTESIAN_POINT ( 'NONE',  ( 0.000000000000000000, 0.000000000000000000, 0.000000000000000000 ) ) ;
#246 = ADVANCED_FACE ( 'NONE', ( #200 ), #109, .F. ) ;
#247 = VERTEX_POINT ( 'NONE', #215 ) ;
#248 = CLOSED_SHELL ( 'NONE', ( #46, #125, #221, #172, #246, #93, #169 ) ) ;
#249 = APPROVAL_ROLE ( '' ) ;
#250 = CARTESIAN_POINT ( 'NONE',  ( 0.000000000000000000, 0.000000000000000000, 0.000000000000000000 ) ) ;
#251 = CARTESIAN_POINT ( 'NONE',  ( 0.000000000000000000, 0.000000000000000000, 7.000000000000000000 ) ) ;
#252 = DIRECTION ( 'NONE',  ( 1.000000000000000000, 0.000000000000000000, 0.000000000000000000 ) ) ;
#253 = CARTESIAN_POINT ( 'NONE',  ( -6.250000000000000000, 0.000000000000000000, 125.0000000000000000 ) ) ;
#254 = CARTESIAN_POINT ( 'NONE',  ( 6.250000000000000000, 7.654042494670957606E-16, 125.0000000000000000 ) ) ;
#255 = AXIS2_PLACEMENT_3D ( 'NONE', #162, #239, #117 ) ;
ENDSEC;
END-ISO-10303-21;
