ISO-10303-21;
HEADER;
FILE_DESCRIPTION (( 'STEP AP203' ),
    '1' );
FILE_NAME ('0e9e.STEP',
    '2023-02-13T11:11:30',
    ( '' ),
    ( '' ),
    'SwSTEP 2.0',
    'SolidWorks 2019',
    '' );
FILE_SCHEMA (( 'CONFIG_CONTROL_DESIGN' ));
ENDSEC;

DATA;
#1 = CARTESIAN_POINT ( 'NONE',  ( 0.000000000000000000, 0.000000000000000000, 0.000000000000000000 ) ) ;
#2 = CIRCLE ( 'NONE', #126, 5.250000000000000888 ) ;
#3 = VECTOR ( 'NONE', #231, 1000.000000000000000 ) ;
#4 = DIRECTION ( 'NONE',  ( 1.000000000000000000, 0.000000000000000000, -0.000000000000000000 ) ) ;
#5 = PERSON_AND_ORGANIZATION ( #229, #108 ) ;
#6 = APPLICATION_PROTOCOL_DEFINITION ( 'international standard', 'config_control_design', 1994, #29 ) ;
#7 = CC_DESIGN_APPROVAL ( #74, ( #86 ) ) ;
#8 = COORDINATED_UNIVERSAL_TIME_OFFSET ( 1, 0, .AHEAD. ) ;
#9 = EDGE_CURVE ( 'NONE', #90, #209, #186, .T. ) ;
#10 = PERSON_AND_ORGANIZATION ( #229, #108 ) ;
#11 = DATE_TIME_ROLE ( 'classification_date' ) ;
#12 = EDGE_LOOP ( 'NONE', ( #251, #190 ) ) ;
#13 = EDGE_CURVE ( 'NONE', #187, #15, #204, .T. ) ;
#14 = ORIENTED_EDGE ( 'NONE', *, *, #13, .F. ) ;
#15 = VERTEX_POINT ( 'NONE', #36 ) ;
#16 = ORIENTED_EDGE ( 'NONE', *, *, #54, .T. ) ;
#17 = LINE ( 'NONE', #96, #82 ) ;
#18 = DIRECTION ( 'NONE',  ( 1.000000000000000000, 0.000000000000000000, 0.000000000000000000 ) ) ;
#19 = CC_DESIGN_SECURITY_CLASSIFICATION ( #105, ( #86 ) ) ;
#20 = DIRECTION ( 'NONE',  ( -0.000000000000000000, -0.000000000000000000, -1.000000000000000000 ) ) ;
#21 = FACE_OUTER_BOUND ( 'NONE', #34, .T. ) ;
#22 = PLANE ( 'NONE',  #99 ) ;
#23 = APPLICATION_CONTEXT ( 'configuration controlled 3d designs of mechanical parts and assemblies' ) ;
#24 =( GEOMETRIC_REPRESENTATION_CONTEXT ( 3 ) GLOBAL_UNCERTAINTY_ASSIGNED_CONTEXT ( ( #41 ) ) GLOBAL_UNIT_ASSIGNED_CONTEXT ( ( #202, #122, #31 ) ) REPRESENTATION_CONTEXT ( 'NONE', 'WORKASPACE' ) );
#25 = APPROVAL_DATE_TIME ( #104, #74 ) ;
#26 = COORDINATED_UNIVERSAL_TIME_OFFSET ( 1, 0, .AHEAD. ) ;
#27 = PERSON_AND_ORGANIZATION ( #229, #108 ) ;
#28 = AXIS2_PLACEMENT_3D ( 'NONE', #155, #20, #156 ) ;
#29 = APPLICATION_CONTEXT ( 'configuration controlled 3d designs of mechanical parts and assemblies' ) ;
#30 = PERSON_AND_ORGANIZATION_ROLE ( 'creator' ) ;
#31 =( NAMED_UNIT ( * ) SI_UNIT ( $, .STERADIAN. ) SOLID_ANGLE_UNIT ( ) );
#32 = ADVANCED_FACE ( 'NONE', ( #133 ), #63, .T. ) ;
#33 = ORIENTED_EDGE ( 'NONE', *, *, #54, .F. ) ;
#34 = EDGE_LOOP ( 'NONE', ( #33, #164, #247, #245 ) ) ;
#35 = ADVANCED_FACE ( 'NONE', ( #176 ), #64, .F. ) ;
#36 = CARTESIAN_POINT ( 'NONE',  ( -8.000000000000000000, 0.000000000000000000, 5.000000000000000000 ) ) ;
#37 = ORIENTED_EDGE ( 'NONE', *, *, #131, .F. ) ;
#38 = EDGE_CURVE ( 'NONE', #134, #211, #80, .T. ) ;
#39 = CARTESIAN_POINT ( 'NONE',  ( 0.000000000000000000, 0.000000000000000000, 0.000000000000000000 ) ) ;
#40 = CARTESIAN_POINT ( 'NONE',  ( 5.250000000000000888, 6.429395695523604153E-16, 400.0000000000000000 ) ) ;
#41 = UNCERTAINTY_MEASURE_WITH_UNIT (LENGTH_MEASURE( 1.000000000000000082E-05 ), #202, 'distance_accuracy_value', 'NONE');
#42 = CARTESIAN_POINT ( 'NONE',  ( 0.000000000000000000, 0.000000000000000000, 400.0000000000000000 ) ) ;
#43 = DIRECTION ( 'NONE',  ( 1.000000000000000000, 0.000000000000000000, 0.000000000000000000 ) ) ;
#44 = PERSON_AND_ORGANIZATION ( #229, #108 ) ;
#45 = CIRCLE ( 'NONE', #182, 5.250000000000000888 ) ;
#46 = DIRECTION ( 'NONE',  ( -1.000000000000000000, 0.000000000000000000, 0.000000000000000000 ) ) ;
#47 = DIRECTION ( 'NONE',  ( -0.000000000000000000, -0.000000000000000000, -1.000000000000000000 ) ) ;
#48 = CC_DESIGN_DATE_AND_TIME_ASSIGNMENT ( #246, #11, ( #105 ) ) ;
#49 = CALENDAR_DATE ( 2023, 13, 2 ) ;
#50 = APPROVAL_DATE_TIME ( #132, #249 ) ;
#51 = ORIENTED_EDGE ( 'NONE', *, *, #13, .T. ) ;
#52 = AXIS2_PLACEMENT_3D ( 'NONE', #224, #69, #120 ) ;
#53 = EDGE_LOOP ( 'NONE', ( #95, #94, #170, #110 ) ) ;
#54 = EDGE_CURVE ( 'NONE', #187, #211, #254, .T. ) ;
#55 = COORDINATED_UNIVERSAL_TIME_OFFSET ( 1, 0, .AHEAD. ) ;
#56 = DIRECTION ( 'NONE',  ( 0.000000000000000000, 0.000000000000000000, 1.000000000000000000 ) ) ;
#57 = ORIENTED_EDGE ( 'NONE', *, *, #101, .T. ) ;
#58 = LOCAL_TIME ( 12, 11, 30.00000000000000000, #84 ) ;
#59 = DIRECTION ( 'NONE',  ( 0.000000000000000000, 0.000000000000000000, 1.000000000000000000 ) ) ;
#60 = CARTESIAN_POINT ( 'NONE',  ( -8.000000000000000000, 0.000000000000000000, 0.000000000000000000 ) ) ;
#61 = CIRCLE ( 'NONE', #121, 5.250000000000000888 ) ;
#62 = DIRECTION ( 'NONE',  ( 1.000000000000000000, 0.000000000000000000, 0.000000000000000000 ) ) ;
#63 = CYLINDRICAL_SURFACE ( 'NONE', #28, 5.250000000000000888 ) ;
#64 = PLANE ( 'NONE',  #206 ) ;
#65 = PERSON_AND_ORGANIZATION ( #229, #108 ) ;
#66 = AXIS2_PLACEMENT_3D ( 'NONE', #228, #56, #212 ) ;
#67 = CC_DESIGN_PERSON_AND_ORGANIZATION_ASSIGNMENT ( #44, #238, ( #86 ) ) ;
#68 = APPROVAL_STATUS ( 'not_yet_approved' ) ;
#69 = DIRECTION ( 'NONE',  ( 0.000000000000000000, 0.000000000000000000, 1.000000000000000000 ) ) ;
#70 = COORDINATED_UNIVERSAL_TIME_OFFSET ( 1, 0, .AHEAD. ) ;
#71 = APPROVAL_PERSON_ORGANIZATION ( #5, #222, #221 ) ;
#72 = APPROVAL_STATUS ( 'not_yet_approved' ) ;
#73 = ORIENTED_EDGE ( 'NONE', *, *, #230, .F. ) ;
#74 = APPROVAL ( #72, 'NEURÈENÝ' ) ;
#75 = ORIENTED_EDGE ( 'NONE', *, *, #184, .T. ) ;
#76 = ADVANCED_FACE ( 'NONE', ( #153 ), #236, .T. ) ;
#77 = CARTESIAN_POINT ( 'NONE',  ( 0.000000000000000000, 0.000000000000000000, 5.000000000000000000 ) ) ;
#78 = DIRECTION ( 'NONE',  ( 1.000000000000000000, 0.000000000000000000, -0.000000000000000000 ) ) ;
#79 = CARTESIAN_POINT ( 'NONE',  ( -5.250000000000000888, 0.000000000000000000, 400.0000000000000000 ) ) ;
#80 = CIRCLE ( 'NONE', #97, 8.000000000000000000 ) ;
#81 = DIRECTION ( 'NONE',  ( 0.000000000000000000, 0.000000000000000000, 1.000000000000000000 ) ) ;
#82 = VECTOR ( 'NONE', #154, 1000.000000000000000 ) ;
#83 = DIRECTION ( 'NONE',  ( 0.000000000000000000, 0.000000000000000000, 1.000000000000000000 ) ) ;
#84 = COORDINATED_UNIVERSAL_TIME_OFFSET ( 1, 0, .AHEAD. ) ;
#85 = CARTESIAN_POINT ( 'NONE',  ( 0.000000000000000000, 0.000000000000000000, 5.000000000000000000 ) ) ;
#86 = PRODUCT_DEFINITION_FORMATION_WITH_SPECIFIED_SOURCE ( 'LIBOVOLNÝ', '', #180, .NOT_KNOWN. ) ;
#87 = PERSON_AND_ORGANIZATION_ROLE ( 'design_supplier' ) ;
#88 = PERSON_AND_ORGANIZATION_ROLE ( 'classification_officer' ) ;
#89 = PERSON_AND_ORGANIZATION ( #229, #108 ) ;
#90 = VERTEX_POINT ( 'NONE', #140 ) ;
#91 = ORIENTED_EDGE ( 'NONE', *, *, #111, .F. ) ;
#92 = EDGE_CURVE ( 'NONE', #211, #134, #93, .T. ) ;
#93 = CIRCLE ( 'NONE', #125, 8.000000000000000000 ) ;
#94 = ORIENTED_EDGE ( 'NONE', *, *, #111, .T. ) ;
#95 = ORIENTED_EDGE ( 'NONE', *, *, #118, .F. ) ;
#96 = CARTESIAN_POINT ( 'NONE',  ( -5.250000000000000888, 0.000000000000000000, 400.0000000000000000 ) ) ;
#97 = AXIS2_PLACEMENT_3D ( 'NONE', #220, #171, #215 ) ;
#98 = CARTESIAN_POINT ( 'NONE',  ( 0.000000000000000000, 0.000000000000000000, 5.000000000000000000 ) ) ;
#99 = AXIS2_PLACEMENT_3D ( 'NONE', #137, #112, #78 ) ;
#100 = CARTESIAN_POINT ( 'NONE',  ( 0.000000000000000000, 0.000000000000000000, 5.000000000000000000 ) ) ;
#101 = EDGE_CURVE ( 'NONE', #209, #90, #61, .T. ) ;
#102 = CYLINDRICAL_SURFACE ( 'NONE', #208, 8.000000000000000000 ) ;
#103 = CARTESIAN_POINT ( 'NONE',  ( 0.000000000000000000, 0.000000000000000000, 400.0000000000000000 ) ) ;
#104 = DATE_AND_TIME ( #147, #115 ) ;
#105 = SECURITY_CLASSIFICATION ( '', '', #241 ) ;
#106 = FACE_OUTER_BOUND ( 'NONE', #53, .T. ) ;
#107 = CARTESIAN_POINT ( 'NONE',  ( 0.000000000000000000, 0.000000000000000000, 400.0000000000000000 ) ) ;
#108 = ORGANIZATION ( 'NEURÈENÝ', 'NEURÈENÝ', '' ) ;
#109 = ORIENTED_EDGE ( 'NONE', *, *, #136, .T. ) ;
#110 = ORIENTED_EDGE ( 'NONE', *, *, #184, .F. ) ;
#111 = EDGE_CURVE ( 'NONE', #191, #90, #174, .T. ) ;
#112 = DIRECTION ( 'NONE',  ( 0.000000000000000000, 0.000000000000000000, 1.000000000000000000 ) ) ;
#113 = DIRECTION ( 'NONE',  ( -0.000000000000000000, -0.000000000000000000, -1.000000000000000000 ) ) ;
#114 = CARTESIAN_POINT ( 'NONE',  ( 5.250000000000000888, 6.429395695523604153E-16, 400.0000000000000000 ) ) ;
#115 = LOCAL_TIME ( 12, 11, 30.00000000000000000, #8 ) ;
#116 = DIRECTION ( 'NONE',  ( 0.000000000000000000, 0.000000000000000000, 1.000000000000000000 ) ) ;
#117 = DIRECTION ( 'NONE',  ( -0.000000000000000000, -0.000000000000000000, -1.000000000000000000 ) ) ;
#118 = EDGE_CURVE ( 'NONE', #191, #124, #2, .T. ) ;
#119 = DATE_AND_TIME ( #242, #163 ) ;
#120 = DIRECTION ( 'NONE',  ( 1.000000000000000000, 0.000000000000000000, 0.000000000000000000 ) ) ;
#121 = AXIS2_PLACEMENT_3D ( 'NONE', #77, #234, #18 ) ;
#122 =( NAMED_UNIT ( * ) PLANE_ANGLE_UNIT ( ) SI_UNIT ( $, .RADIAN. ) );
#123 = CC_DESIGN_PERSON_AND_ORGANIZATION_ASSIGNMENT ( #181, #30, ( #217 ) ) ;
#124 = VERTEX_POINT ( 'NONE', #79 ) ;
#125 = AXIS2_PLACEMENT_3D ( 'NONE', #1, #81, #43 ) ;
#126 = AXIS2_PLACEMENT_3D ( 'NONE', #255, #152, #194 ) ;
#127 = AXIS2_PLACEMENT_3D ( 'NONE', #107, #47, #146 ) ;
#128 = SHAPE_DEFINITION_REPRESENTATION ( #145, #197 ) ;
#129 = ORIENTED_EDGE ( 'NONE', *, *, #9, .F. ) ;
#130 = ORIENTED_EDGE ( 'NONE', *, *, #101, .F. ) ;
#131 = EDGE_CURVE ( 'NONE', #15, #134, #142, .T. ) ;
#132 = DATE_AND_TIME ( #49, #167 ) ;
#133 = FACE_OUTER_BOUND ( 'NONE', #149, .T. ) ;
#134 = VERTEX_POINT ( 'NONE', #60 ) ;
#135 = FACE_OUTER_BOUND ( 'NONE', #189, .T. ) ;
#136 = EDGE_CURVE ( 'NONE', #15, #187, #253, .T. ) ;
#137 = CARTESIAN_POINT ( 'NONE',  ( 0.000000000000000000, 0.000000000000000000, 5.000000000000000000 ) ) ;
#138 = CARTESIAN_POINT ( 'NONE',  ( -5.250000000000000888, 0.000000000000000000, 5.000000000000000000 ) ) ;
#139 = APPROVAL_PERSON_ORGANIZATION ( #89, #249, #185 ) ;
#140 = CARTESIAN_POINT ( 'NONE',  ( 5.250000000000000888, 6.429395695523604153E-16, 5.000000000000000000 ) ) ;
#141 = CC_DESIGN_PERSON_AND_ORGANIZATION_ASSIGNMENT ( #65, #88, ( #105 ) ) ;
#142 = LINE ( 'NONE', #218, #3 ) ;
#143 = MECHANICAL_CONTEXT ( 'NONE', #23, 'mechanical' ) ;
#144 = CALENDAR_DATE ( 2023, 13, 2 ) ;
#145 = PRODUCT_DEFINITION_SHAPE ( 'NONE', 'NONE',  #217 ) ;
#146 = DIRECTION ( 'NONE',  ( -1.000000000000000000, 0.000000000000000000, 0.000000000000000000 ) ) ;
#147 = CALENDAR_DATE ( 2023, 13, 2 ) ;
#148 = EDGE_LOOP ( 'NONE', ( #130, #129 ) ) ;
#149 = EDGE_LOOP ( 'NONE', ( #91, #73, #75, #57 ) ) ;
#150 = DIRECTION ( 'NONE',  ( 1.000000000000000000, 0.000000000000000000, 0.000000000000000000 ) ) ;
#151 = ADVANCED_FACE ( 'NONE', ( #199, #177 ), #22, .T. ) ;
#152 = DIRECTION ( 'NONE',  ( 0.000000000000000000, 0.000000000000000000, 1.000000000000000000 ) ) ;
#153 = FACE_OUTER_BOUND ( 'NONE', #227, .T. ) ;
#154 = DIRECTION ( 'NONE',  ( -0.000000000000000000, -0.000000000000000000, -1.000000000000000000 ) ) ;
#155 = CARTESIAN_POINT ( 'NONE',  ( 0.000000000000000000, 0.000000000000000000, 400.0000000000000000 ) ) ;
#156 = DIRECTION ( 'NONE',  ( -1.000000000000000000, 0.000000000000000000, 0.000000000000000000 ) ) ;
#157 = APPROVAL_ROLE ( '' ) ;
#158 = AXIS2_PLACEMENT_3D ( 'NONE', #98, #59, #62 ) ;
#159 = APPROVAL_DATE_TIME ( #119, #222 ) ;
#160 = DATE_AND_TIME ( #144, #58 ) ;
#161 = APPLICATION_PROTOCOL_DEFINITION ( 'international standard', 'config_control_design', 1994, #23 ) ;
#162 = CC_DESIGN_PERSON_AND_ORGANIZATION_ASSIGNMENT ( #27, #179, ( #180 ) ) ;
#163 = LOCAL_TIME ( 12, 11, 30.00000000000000000, #26 ) ;
#164 = ORIENTED_EDGE ( 'NONE', *, *, #136, .F. ) ;
#165 = ORIENTED_EDGE ( 'NONE', *, *, #118, .T. ) ;
#166 = VECTOR ( 'NONE', #113, 1000.000000000000000 ) ;
#167 = LOCAL_TIME ( 12, 11, 30.00000000000000000, #55 ) ;
#168 = APPROVAL_STATUS ( 'not_yet_approved' ) ;
#169 = CARTESIAN_POINT ( 'NONE',  ( 0.000000000000000000, 0.000000000000000000, 5.000000000000000000 ) ) ;
#170 = ORIENTED_EDGE ( 'NONE', *, *, #9, .T. ) ;
#171 = DIRECTION ( 'NONE',  ( 0.000000000000000000, 0.000000000000000000, 1.000000000000000000 ) ) ;
#172 = AXIS2_PLACEMENT_3D ( 'NONE', #169, #250, #150 ) ;
#173 = CARTESIAN_POINT ( 'NONE',  ( 8.000000000000000000, 9.797174393178825657E-16, 5.000000000000000000 ) ) ;
#174 = LINE ( 'NONE', #114, #223 ) ;
#175 = CC_DESIGN_DATE_AND_TIME_ASSIGNMENT ( #160, #244, ( #217 ) ) ;
#176 = FACE_OUTER_BOUND ( 'NONE', #12, .T. ) ;
#177 = FACE_OUTER_BOUND ( 'NONE', #225, .T. ) ;
#178 = DIRECTION ( 'NONE',  ( -0.000000000000000000, -0.000000000000000000, -1.000000000000000000 ) ) ;
#179 = PERSON_AND_ORGANIZATION_ROLE ( 'design_owner' ) ;
#180 = PRODUCT ( '0e9e', '0e9e', '', ( #143 ) ) ;
#181 = PERSON_AND_ORGANIZATION ( #229, #108 ) ;
#182 = AXIS2_PLACEMENT_3D ( 'NONE', #42, #116, #198 ) ;
#183 = CYLINDRICAL_SURFACE ( 'NONE', #127, 5.250000000000000888 ) ;
#184 = EDGE_CURVE ( 'NONE', #124, #209, #17, .T. ) ;
#185 = APPROVAL_ROLE ( '' ) ;
#186 = CIRCLE ( 'NONE', #172, 5.250000000000000888 ) ;
#187 = VERTEX_POINT ( 'NONE', #173 ) ;
#188 = AXIS2_PLACEMENT_3D ( 'NONE', #103, #83, #196 ) ;
#189 = EDGE_LOOP ( 'NONE', ( #207, #165 ) ) ;
#190 = ORIENTED_EDGE ( 'NONE', *, *, #92, .F. ) ;
#191 = VERTEX_POINT ( 'NONE', #40 ) ;
#192 = CALENDAR_DATE ( 2023, 13, 2 ) ;
#193 = CARTESIAN_POINT ( 'NONE',  ( 8.000000000000000000, 9.797174393178825657E-16, 5.000000000000000000 ) ) ;
#194 = DIRECTION ( 'NONE',  ( 1.000000000000000000, 0.000000000000000000, 0.000000000000000000 ) ) ;
#195 = CC_DESIGN_APPROVAL ( #222, ( #217 ) ) ;
#196 = DIRECTION ( 'NONE',  ( 1.000000000000000000, 0.000000000000000000, -0.000000000000000000 ) ) ;
#197 = ADVANCED_BREP_SHAPE_REPRESENTATION ( '0e9e', ( #240, #52 ), #24 ) ;
#198 = DIRECTION ( 'NONE',  ( 1.000000000000000000, 0.000000000000000000, 0.000000000000000000 ) ) ;
#199 = FACE_BOUND ( 'NONE', #148, .T. ) ;
#200 = CLOSED_SHELL ( 'NONE', ( #243, #76, #233, #151, #35, #32, #203 ) ) ;
#201 = APPROVAL_PERSON_ORGANIZATION ( #10, #74, #157 ) ;
#202 =( LENGTH_UNIT ( ) NAMED_UNIT ( * ) SI_UNIT ( .MILLI., .METRE. ) );
#203 = ADVANCED_FACE ( 'NONE', ( #135 ), #214, .T. ) ;
#204 = CIRCLE ( 'NONE', #66, 8.000000000000000000 ) ;
#205 = CC_DESIGN_APPROVAL ( #249, ( #105 ) ) ;
#206 = AXIS2_PLACEMENT_3D ( 'NONE', #39, #252, #4 ) ;
#207 = ORIENTED_EDGE ( 'NONE', *, *, #230, .T. ) ;
#208 = AXIS2_PLACEMENT_3D ( 'NONE', #85, #178, #46 ) ;
#209 = VERTEX_POINT ( 'NONE', #138 ) ;
#210 = PRODUCT_RELATED_PRODUCT_CATEGORY ( 'detail', '', ( #180 ) ) ;
#211 = VERTEX_POINT ( 'NONE', #216 ) ;
#212 = DIRECTION ( 'NONE',  ( 1.000000000000000000, 0.000000000000000000, 0.000000000000000000 ) ) ;
#213 = ORIENTED_EDGE ( 'NONE', *, *, #92, .T. ) ;
#214 = PLANE ( 'NONE',  #188 ) ;
#215 = DIRECTION ( 'NONE',  ( 1.000000000000000000, 0.000000000000000000, 0.000000000000000000 ) ) ;
#216 = CARTESIAN_POINT ( 'NONE',  ( 8.000000000000000000, 9.797174393178825657E-16, 0.000000000000000000 ) ) ;
#217 = PRODUCT_DEFINITION ( 'NEZNÁMÝ', '', #86, #219 ) ;
#218 = CARTESIAN_POINT ( 'NONE',  ( -8.000000000000000000, 0.000000000000000000, 5.000000000000000000 ) ) ;
#219 = DESIGN_CONTEXT ( 'detailed design', #29, 'design' ) ;
#220 = CARTESIAN_POINT ( 'NONE',  ( 0.000000000000000000, 0.000000000000000000, 0.000000000000000000 ) ) ;
#221 = APPROVAL_ROLE ( '' ) ;
#222 = APPROVAL ( #68, 'NEURÈENÝ' ) ;
#223 = VECTOR ( 'NONE', #117, 1000.000000000000000 ) ;
#224 = CARTESIAN_POINT ( 'NONE',  ( 0.000000000000000000, 0.000000000000000000, 0.000000000000000000 ) ) ;
#225 = EDGE_LOOP ( 'NONE', ( #109, #51 ) ) ;
#226 = CC_DESIGN_PERSON_AND_ORGANIZATION_ASSIGNMENT ( #239, #87, ( #86 ) ) ;
#227 = EDGE_LOOP ( 'NONE', ( #14, #16, #213, #37 ) ) ;
#228 = CARTESIAN_POINT ( 'NONE',  ( 0.000000000000000000, 0.000000000000000000, 5.000000000000000000 ) ) ;
#229 = PERSON ( 'NEURÈENÝ', 'NEURÈENÝ', 'NEURÈENÝ', ('NEURÈENÝ'), ('NEURÈENÝ'), ('NEURÈENÝ') ) ;
#230 = EDGE_CURVE ( 'NONE', #124, #191, #45, .T. ) ;
#231 = DIRECTION ( 'NONE',  ( -0.000000000000000000, -0.000000000000000000, -1.000000000000000000 ) ) ;
#232 = DIRECTION ( 'NONE',  ( -1.000000000000000000, 0.000000000000000000, 0.000000000000000000 ) ) ;
#233 = ADVANCED_FACE ( 'NONE', ( #21 ), #102, .T. ) ;
#234 = DIRECTION ( 'NONE',  ( 0.000000000000000000, 0.000000000000000000, 1.000000000000000000 ) ) ;
#235 = AXIS2_PLACEMENT_3D ( 'NONE', #100, #237, #232 ) ;
#236 = CYLINDRICAL_SURFACE ( 'NONE', #235, 8.000000000000000000 ) ;
#237 = DIRECTION ( 'NONE',  ( -0.000000000000000000, -0.000000000000000000, -1.000000000000000000 ) ) ;
#238 = PERSON_AND_ORGANIZATION_ROLE ( 'creator' ) ;
#239 = PERSON_AND_ORGANIZATION ( #229, #108 ) ;
#240 = MANIFOLD_SOLID_BREP ( 'Pøidat vysunutím3', #200 ) ;
#241 = SECURITY_CLASSIFICATION_LEVEL ( 'unclassified' ) ;
#242 = CALENDAR_DATE ( 2023, 13, 2 ) ;
#243 = ADVANCED_FACE ( 'NONE', ( #106 ), #183, .T. ) ;
#244 = DATE_TIME_ROLE ( 'creation_date' ) ;
#245 = ORIENTED_EDGE ( 'NONE', *, *, #38, .T. ) ;
#246 = DATE_AND_TIME ( #192, #248 ) ;
#247 = ORIENTED_EDGE ( 'NONE', *, *, #131, .T. ) ;
#248 = LOCAL_TIME ( 12, 11, 30.00000000000000000, #70 ) ;
#249 = APPROVAL ( #168, 'NEURÈENÝ' ) ;
#250 = DIRECTION ( 'NONE',  ( 0.000000000000000000, 0.000000000000000000, 1.000000000000000000 ) ) ;
#251 = ORIENTED_EDGE ( 'NONE', *, *, #38, .F. ) ;
#252 = DIRECTION ( 'NONE',  ( 0.000000000000000000, 0.000000000000000000, 1.000000000000000000 ) ) ;
#253 = CIRCLE ( 'NONE', #158, 8.000000000000000000 ) ;
#254 = LINE ( 'NONE', #193, #166 ) ;
#255 = CARTESIAN_POINT ( 'NONE',  ( 0.000000000000000000, 0.000000000000000000, 400.0000000000000000 ) ) ;
ENDSEC;
END-ISO-10303-21;
