ISO-10303-21;
HEADER;
FILE_DESCRIPTION (( 'STEP AP203' ),
    '1' );
FILE_NAME ('8052.STEP',
    '2023-02-13T12:05:21',
    ( '' ),
    ( '' ),
    'SwSTEP 2.0',
    'SolidWorks 2019',
    '' );
FILE_SCHEMA (( 'CONFIG_CONTROL_DESIGN' ));
ENDSEC;

DATA;
#1 = MANIFOLD_SOLID_BREP ( 'Pøidat vysunutím3', #167 ) ;
#2 = PERSON_AND_ORGANIZATION_ROLE ( 'creator' ) ;
#3 = CARTESIAN_POINT ( 'NONE',  ( -5.000000000000000888, 0.000000000000000000, 5.000000000000000000 ) ) ;
#4 = EDGE_LOOP ( 'NONE', ( #161, #29 ) ) ;
#5 = APPROVAL_ROLE ( '' ) ;
#6 = DIRECTION ( 'NONE',  ( 0.000000000000000000, 0.000000000000000000, 1.000000000000000000 ) ) ;
#7 = CARTESIAN_POINT ( 'NONE',  ( 0.000000000000000000, 0.000000000000000000, 5.000000000000000000 ) ) ;
#8 = ADVANCED_FACE ( 'NONE', ( #86 ), #220, .T. ) ;
#9 = DIRECTION ( 'NONE',  ( -1.000000000000000000, 0.000000000000000000, 0.000000000000000000 ) ) ;
#10 = CARTESIAN_POINT ( 'NONE',  ( 0.000000000000000000, 0.000000000000000000, 0.000000000000000000 ) ) ;
#11 = DIRECTION ( 'NONE',  ( 1.000000000000000000, 0.000000000000000000, 0.000000000000000000 ) ) ;
#12 = ADVANCED_FACE ( 'NONE', ( #143 ), #150, .T. ) ;
#13 = CYLINDRICAL_SURFACE ( 'NONE', #77, 8.000000000000000000 ) ;
#14 = CIRCLE ( 'NONE', #152, 5.000000000000000888 ) ;
#15 = LINE ( 'NONE', #76, #255 ) ;
#16 = COORDINATED_UNIVERSAL_TIME_OFFSET ( 1, 0, .AHEAD. ) ;
#17 = PLANE ( 'NONE',  #72 ) ;
#18 = DATE_AND_TIME ( #231, #75 ) ;
#19 = PLANE ( 'NONE',  #85 ) ;
#20 = EDGE_CURVE ( 'NONE', #216, #84, #14, .T. ) ;
#21 = FACE_OUTER_BOUND ( 'NONE', #37, .T. ) ;
#22 = EDGE_CURVE ( 'NONE', #236, #62, #117, .T. ) ;
#23 = DIRECTION ( 'NONE',  ( 1.000000000000000000, 0.000000000000000000, 0.000000000000000000 ) ) ;
#24 = PERSON_AND_ORGANIZATION ( #69, #26 ) ;
#25 = EDGE_CURVE ( 'NONE', #241, #123, #49, .T. ) ;
#26 = ORGANIZATION ( 'NEURÈENÝ', 'NEURÈENÝ', '' ) ;
#27 = ORIENTED_EDGE ( 'NONE', *, *, #249, .F. ) ;
#28 = DIRECTION ( 'NONE',  ( 1.000000000000000000, 0.000000000000000000, 0.000000000000000000 ) ) ;
#29 = ORIENTED_EDGE ( 'NONE', *, *, #25, .T. ) ;
#30 = CC_DESIGN_APPROVAL ( #237, ( #158 ) ) ;
#31 = EDGE_LOOP ( 'NONE', ( #164, #244, #128, #219 ) ) ;
#32 = DIRECTION ( 'NONE',  ( -0.000000000000000000, -0.000000000000000000, -1.000000000000000000 ) ) ;
#33 = APPROVAL_ROLE ( '' ) ;
#34 = VECTOR ( 'NONE', #118, 1000.000000000000000 ) ;
#35 = CARTESIAN_POINT ( 'NONE',  ( -5.000000000000000888, 0.000000000000000000, 1000.000000000000000 ) ) ;
#36 = AXIS2_PLACEMENT_3D ( 'NONE', #42, #6, #82 ) ;
#37 = EDGE_LOOP ( 'NONE', ( #99, #186 ) ) ;
#38 = CARTESIAN_POINT ( 'NONE',  ( -8.000000000000000000, 0.000000000000000000, 5.000000000000000000 ) ) ;
#39 = AXIS2_PLACEMENT_3D ( 'NONE', #121, #203, #23 ) ;
#40 = CARTESIAN_POINT ( 'NONE',  ( 0.000000000000000000, 0.000000000000000000, 5.000000000000000000 ) ) ;
#41 =( LENGTH_UNIT ( ) NAMED_UNIT ( * ) SI_UNIT ( .MILLI., .METRE. ) );
#42 = CARTESIAN_POINT ( 'NONE',  ( 0.000000000000000000, 0.000000000000000000, 0.000000000000000000 ) ) ;
#43 = ORIENTED_EDGE ( 'NONE', *, *, #90, .F. ) ;
#44 = ORIENTED_EDGE ( 'NONE', *, *, #20, .T. ) ;
#45 = ORIENTED_EDGE ( 'NONE', *, *, #163, .T. ) ;
#46 = AXIS2_PLACEMENT_3D ( 'NONE', #230, #112, #120 ) ;
#47 = PRODUCT_DEFINITION_FORMATION_WITH_SPECIFIED_SOURCE ( 'LIBOVOLNÝ', '', #177, .NOT_KNOWN. ) ;
#48 = FACE_OUTER_BOUND ( 'NONE', #149, .T. ) ;
#49 = CIRCLE ( 'NONE', #187, 8.000000000000000000 ) ;
#50 = ADVANCED_FACE ( 'NONE', ( #48 ), #192, .T. ) ;
#51 = DIRECTION ( 'NONE',  ( -1.000000000000000000, 0.000000000000000000, 0.000000000000000000 ) ) ;
#52 = FACE_BOUND ( 'NONE', #217, .T. ) ;
#53 = LOCAL_TIME ( 13, 5, 21.00000000000000000, #81 ) ;
#54 = LOCAL_TIME ( 13, 5, 21.00000000000000000, #199 ) ;
#55 = LINE ( 'NONE', #197, #202 ) ;
#56 = DIRECTION ( 'NONE',  ( 0.000000000000000000, 0.000000000000000000, 1.000000000000000000 ) ) ;
#57 = EDGE_LOOP ( 'NONE', ( #43, #207, #67, #45 ) ) ;
#58 = CC_DESIGN_SECURITY_CLASSIFICATION ( #239, ( #47 ) ) ;
#59 = ADVANCED_FACE ( 'NONE', ( #105 ), #13, .T. ) ;
#60 = CARTESIAN_POINT ( 'NONE',  ( 8.000000000000000000, 9.797174393178825657E-16, 0.000000000000000000 ) ) ;
#61 = CIRCLE ( 'NONE', #110, 5.000000000000000888 ) ;
#62 = VERTEX_POINT ( 'NONE', #171 ) ;
#63 = APPLICATION_PROTOCOL_DEFINITION ( 'international standard', 'config_control_design', 1994, #252 ) ;
#64 = ORIENTED_EDGE ( 'NONE', *, *, #83, .F. ) ;
#65 = CARTESIAN_POINT ( 'NONE',  ( 0.000000000000000000, 0.000000000000000000, 0.000000000000000000 ) ) ;
#66 =( NAMED_UNIT ( * ) SI_UNIT ( $, .STERADIAN. ) SOLID_ANGLE_UNIT ( ) );
#67 = ORIENTED_EDGE ( 'NONE', *, *, #111, .T. ) ;
#68 = CARTESIAN_POINT ( 'NONE',  ( 0.000000000000000000, 0.000000000000000000, 5.000000000000000000 ) ) ;
#69 = PERSON ( 'NEURÈENÝ', 'NEURÈENÝ', 'NEURÈENÝ', ('NEURÈENÝ'), ('NEURÈENÝ'), ('NEURÈENÝ') ) ;
#70 = APPLICATION_PROTOCOL_DEFINITION ( 'international standard', 'config_control_design', 1994, #172 ) ;
#71 = PERSON_AND_ORGANIZATION ( #69, #26 ) ;
#72 = AXIS2_PLACEMENT_3D ( 'NONE', #40, #122, #162 ) ;
#73 = DIRECTION ( 'NONE',  ( 1.000000000000000000, 0.000000000000000000, -0.000000000000000000 ) ) ;
#74 = DIRECTION ( 'NONE',  ( 0.000000000000000000, 0.000000000000000000, 1.000000000000000000 ) ) ;
#75 = LOCAL_TIME ( 13, 5, 21.00000000000000000, #233 ) ;
#76 = CARTESIAN_POINT ( 'NONE',  ( -8.000000000000000000, 0.000000000000000000, 5.000000000000000000 ) ) ;
#77 = AXIS2_PLACEMENT_3D ( 'NONE', #133, #106, #87 ) ;
#78 = EDGE_CURVE ( 'NONE', #222, #84, #195, .T. ) ;
#79 = ORIENTED_EDGE ( 'NONE', *, *, #127, .T. ) ;
#80 = EDGE_LOOP ( 'NONE', ( #147, #201, #184, #44 ) ) ;
#81 = COORDINATED_UNIVERSAL_TIME_OFFSET ( 1, 0, .AHEAD. ) ;
#82 = DIRECTION ( 'NONE',  ( 1.000000000000000000, 0.000000000000000000, 0.000000000000000000 ) ) ;
#83 = EDGE_CURVE ( 'NONE', #84, #216, #61, .T. ) ;
#84 = VERTEX_POINT ( 'NONE', #115 ) ;
#85 = AXIS2_PLACEMENT_3D ( 'NONE', #95, #74, #179 ) ;
#86 = FACE_OUTER_BOUND ( 'NONE', #246, .T. ) ;
#87 = DIRECTION ( 'NONE',  ( -1.000000000000000000, 0.000000000000000000, 0.000000000000000000 ) ) ;
#88 = ORIENTED_EDGE ( 'NONE', *, *, #20, .F. ) ;
#89 = MECHANICAL_CONTEXT ( 'NONE', #172, 'mechanical' ) ;
#90 = EDGE_CURVE ( 'NONE', #241, #236, #55, .T. ) ;
#91 = ADVANCED_FACE ( 'NONE', ( #21 ), #19, .F. ) ;
#92 = ADVANCED_BREP_SHAPE_REPRESENTATION ( '8052', ( #1, #130 ), #206 ) ;
#93 = CALENDAR_DATE ( 2023, 13, 2 ) ;
#94 = DATE_TIME_ROLE ( 'creation_date' ) ;
#95 = CARTESIAN_POINT ( 'NONE',  ( 0.000000000000000000, 0.000000000000000000, 0.000000000000000000 ) ) ;
#96 = PERSON_AND_ORGANIZATION_ROLE ( 'design_supplier' ) ;
#97 = DATE_AND_TIME ( #159, #54 ) ;
#98 = PRODUCT_DEFINITION_SHAPE ( 'NONE', 'NONE',  #158 ) ;
#99 = ORIENTED_EDGE ( 'NONE', *, *, #163, .F. ) ;
#100 = DESIGN_CONTEXT ( 'detailed design', #252, 'design' ) ;
#101 = CIRCLE ( 'NONE', #208, 8.000000000000000000 ) ;
#102 = VERTEX_POINT ( 'NONE', #198 ) ;
#103 = ORIENTED_EDGE ( 'NONE', *, *, #83, .T. ) ;
#104 = DIRECTION ( 'NONE',  ( -0.000000000000000000, -0.000000000000000000, -1.000000000000000000 ) ) ;
#105 = FACE_OUTER_BOUND ( 'NONE', #31, .T. ) ;
#106 = DIRECTION ( 'NONE',  ( -0.000000000000000000, -0.000000000000000000, -1.000000000000000000 ) ) ;
#107 = CIRCLE ( 'NONE', #178, 8.000000000000000000 ) ;
#108 = CC_DESIGN_PERSON_AND_ORGANIZATION_ASSIGNMENT ( #24, #2, ( #158 ) ) ;
#109 = CC_DESIGN_PERSON_AND_ORGANIZATION_ASSIGNMENT ( #156, #251, ( #239 ) ) ;
#110 = AXIS2_PLACEMENT_3D ( 'NONE', #229, #56, #215 ) ;
#111 = EDGE_CURVE ( 'NONE', #123, #62, #15, .T. ) ;
#112 = DIRECTION ( 'NONE',  ( 0.000000000000000000, 0.000000000000000000, 1.000000000000000000 ) ) ;
#113 = DATE_TIME_ROLE ( 'classification_date' ) ;
#114 = CIRCLE ( 'NONE', #46, 5.000000000000000888 ) ;
#115 = CARTESIAN_POINT ( 'NONE',  ( 5.000000000000000888, 6.123233995736766282E-16, 5.000000000000000000 ) ) ;
#116 = CC_DESIGN_APPROVAL ( #126, ( #47 ) ) ;
#117 = CIRCLE ( 'NONE', #36, 8.000000000000000000 ) ;
#118 = DIRECTION ( 'NONE',  ( -0.000000000000000000, -0.000000000000000000, -1.000000000000000000 ) ) ;
#119 = PERSON_AND_ORGANIZATION ( #69, #26 ) ;
#120 = DIRECTION ( 'NONE',  ( 1.000000000000000000, 0.000000000000000000, 0.000000000000000000 ) ) ;
#121 = CARTESIAN_POINT ( 'NONE',  ( 0.000000000000000000, 0.000000000000000000, 1000.000000000000000 ) ) ;
#122 = DIRECTION ( 'NONE',  ( 0.000000000000000000, 0.000000000000000000, 1.000000000000000000 ) ) ;
#123 = VERTEX_POINT ( 'NONE', #38 ) ;
#124 = DIRECTION ( 'NONE',  ( -1.000000000000000000, 0.000000000000000000, 0.000000000000000000 ) ) ;
#125 = APPROVAL_ROLE ( '' ) ;
#126 = APPROVAL ( #153, 'NEURÈENÝ' ) ;
#127 = EDGE_CURVE ( 'NONE', #102, #222, #114, .T. ) ;
#128 = ORIENTED_EDGE ( 'NONE', *, *, #22, .T. ) ;
#129 = DIRECTION ( 'NONE',  ( 0.000000000000000000, 0.000000000000000000, 1.000000000000000000 ) ) ;
#130 = AXIS2_PLACEMENT_3D ( 'NONE', #10, #129, #11 ) ;
#131 = LOCAL_TIME ( 13, 5, 21.00000000000000000, #196 ) ;
#132 = ADVANCED_FACE ( 'NONE', ( #52, #211 ), #17, .T. ) ;
#133 = CARTESIAN_POINT ( 'NONE',  ( 0.000000000000000000, 0.000000000000000000, 5.000000000000000000 ) ) ;
#134 = CARTESIAN_POINT ( 'NONE',  ( 5.000000000000000888, 6.123233995736766282E-16, 1000.000000000000000 ) ) ;
#135 = DIRECTION ( 'NONE',  ( -0.000000000000000000, -0.000000000000000000, -1.000000000000000000 ) ) ;
#136 = CC_DESIGN_PERSON_AND_ORGANIZATION_ASSIGNMENT ( #119, #96, ( #47 ) ) ;
#137 = EDGE_CURVE ( 'NONE', #123, #241, #107, .T. ) ;
#138 = AXIS2_PLACEMENT_3D ( 'NONE', #227, #173, #51 ) ;
#139 = PERSON_AND_ORGANIZATION ( #69, #26 ) ;
#140 = LINE ( 'NONE', #35, #34 ) ;
#141 = DIRECTION ( 'NONE',  ( 1.000000000000000000, 0.000000000000000000, 0.000000000000000000 ) ) ;
#142 = CARTESIAN_POINT ( 'NONE',  ( 8.000000000000000000, 9.797174393178825657E-16, 5.000000000000000000 ) ) ;
#143 = FACE_OUTER_BOUND ( 'NONE', #80, .T. ) ;
#144 = CALENDAR_DATE ( 2023, 13, 2 ) ;
#145 = FACE_OUTER_BOUND ( 'NONE', #57, .T. ) ;
#146 = ORIENTED_EDGE ( 'NONE', *, *, #78, .T. ) ;
#147 = ORIENTED_EDGE ( 'NONE', *, *, #78, .F. ) ;
#148 = DIRECTION ( 'NONE',  ( 0.000000000000000000, 0.000000000000000000, 1.000000000000000000 ) ) ;
#149 = EDGE_LOOP ( 'NONE', ( #79, #191 ) ) ;
#150 = CYLINDRICAL_SURFACE ( 'NONE', #221, 5.000000000000000888 ) ;
#151 = CYLINDRICAL_SURFACE ( 'NONE', #138, 8.000000000000000000 ) ;
#152 = AXIS2_PLACEMENT_3D ( 'NONE', #168, #182, #240 ) ;
#153 = APPROVAL_STATUS ( 'not_yet_approved' ) ;
#154 = APPROVAL_DATE_TIME ( #18, #188 ) ;
#155 = CIRCLE ( 'NONE', #39, 5.000000000000000888 ) ;
#156 = PERSON_AND_ORGANIZATION ( #69, #26 ) ;
#157 = DIRECTION ( 'NONE',  ( -0.000000000000000000, -0.000000000000000000, -1.000000000000000000 ) ) ;
#158 = PRODUCT_DEFINITION ( 'NEZNÁMÝ', '', #47, #100 ) ;
#159 = CALENDAR_DATE ( 2023, 13, 2 ) ;
#160 = APPROVAL_PERSON_ORGANIZATION ( #247, #188, #125 ) ;
#161 = ORIENTED_EDGE ( 'NONE', *, *, #137, .T. ) ;
#162 = DIRECTION ( 'NONE',  ( 1.000000000000000000, 0.000000000000000000, -0.000000000000000000 ) ) ;
#163 = EDGE_CURVE ( 'NONE', #62, #236, #101, .T. ) ;
#164 = ORIENTED_EDGE ( 'NONE', *, *, #25, .F. ) ;
#165 = PERSON_AND_ORGANIZATION ( #69, #26 ) ;
#166 = DIRECTION ( 'NONE',  ( 1.000000000000000000, 0.000000000000000000, 0.000000000000000000 ) ) ;
#167 = CLOSED_SHELL ( 'NONE', ( #8, #59, #243, #132, #91, #12, #50 ) ) ;
#168 = CARTESIAN_POINT ( 'NONE',  ( 0.000000000000000000, 0.000000000000000000, 5.000000000000000000 ) ) ;
#169 = CARTESIAN_POINT ( 'NONE',  ( 0.000000000000000000, 0.000000000000000000, 1000.000000000000000 ) ) ;
#170 = APPROVAL_PERSON_ORGANIZATION ( #165, #237, #5 ) ;
#171 = CARTESIAN_POINT ( 'NONE',  ( -8.000000000000000000, 0.000000000000000000, 0.000000000000000000 ) ) ;
#172 = APPLICATION_CONTEXT ( 'configuration controlled 3d designs of mechanical parts and assemblies' ) ;
#173 = DIRECTION ( 'NONE',  ( -0.000000000000000000, -0.000000000000000000, -1.000000000000000000 ) ) ;
#174 = LOCAL_TIME ( 13, 5, 21.00000000000000000, #16 ) ;
#175 = EDGE_CURVE ( 'NONE', #222, #102, #155, .T. ) ;
#176 = PERSON_AND_ORGANIZATION ( #69, #26 ) ;
#177 = PRODUCT ( '8052', '8052', '', ( #89 ) ) ;
#178 = AXIS2_PLACEMENT_3D ( 'NONE', #7, #204, #166 ) ;
#179 = DIRECTION ( 'NONE',  ( 1.000000000000000000, 0.000000000000000000, -0.000000000000000000 ) ) ;
#180 = VECTOR ( 'NONE', #135, 1000.000000000000000 ) ;
#181 = DATE_AND_TIME ( #250, #174 ) ;
#182 = DIRECTION ( 'NONE',  ( 0.000000000000000000, 0.000000000000000000, 1.000000000000000000 ) ) ;
#183 = CARTESIAN_POINT ( 'NONE',  ( 5.000000000000000888, 6.123233995736766282E-16, 1000.000000000000000 ) ) ;
#184 = ORIENTED_EDGE ( 'NONE', *, *, #249, .T. ) ;
#185 = PERSON_AND_ORGANIZATION_ROLE ( 'design_owner' ) ;
#186 = ORIENTED_EDGE ( 'NONE', *, *, #22, .F. ) ;
#187 = AXIS2_PLACEMENT_3D ( 'NONE', #68, #148, #28 ) ;
#188 = APPROVAL ( #238, 'NEURÈENÝ' ) ;
#189 = DIRECTION ( 'NONE',  ( -0.000000000000000000, -0.000000000000000000, -1.000000000000000000 ) ) ;
#190 =( NAMED_UNIT ( * ) PLANE_ANGLE_UNIT ( ) SI_UNIT ( $, .RADIAN. ) );
#191 = ORIENTED_EDGE ( 'NONE', *, *, #175, .T. ) ;
#192 = PLANE ( 'NONE',  #194 ) ;
#193 = CARTESIAN_POINT ( 'NONE',  ( 0.000000000000000000, 0.000000000000000000, 1000.000000000000000 ) ) ;
#194 = AXIS2_PLACEMENT_3D ( 'NONE', #193, #225, #73 ) ;
#195 = LINE ( 'NONE', #134, #180 ) ;
#196 = COORDINATED_UNIVERSAL_TIME_OFFSET ( 1, 0, .AHEAD. ) ;
#197 = CARTESIAN_POINT ( 'NONE',  ( 8.000000000000000000, 9.797174393178825657E-16, 5.000000000000000000 ) ) ;
#198 = CARTESIAN_POINT ( 'NONE',  ( -5.000000000000000888, 0.000000000000000000, 1000.000000000000000 ) ) ;
#199 = COORDINATED_UNIVERSAL_TIME_OFFSET ( 1, 0, .AHEAD. ) ;
#200 = APPROVAL_DATE_TIME ( #181, #126 ) ;
#201 = ORIENTED_EDGE ( 'NONE', *, *, #127, .F. ) ;
#202 = VECTOR ( 'NONE', #32, 1000.000000000000000 ) ;
#203 = DIRECTION ( 'NONE',  ( 0.000000000000000000, 0.000000000000000000, 1.000000000000000000 ) ) ;
#204 = DIRECTION ( 'NONE',  ( 0.000000000000000000, 0.000000000000000000, 1.000000000000000000 ) ) ;
#205 = CARTESIAN_POINT ( 'NONE',  ( 0.000000000000000000, 0.000000000000000000, 1000.000000000000000 ) ) ;
#206 =( GEOMETRIC_REPRESENTATION_CONTEXT ( 3 ) GLOBAL_UNCERTAINTY_ASSIGNED_CONTEXT ( ( #226 ) ) GLOBAL_UNIT_ASSIGNED_CONTEXT ( ( #41, #190, #66 ) ) REPRESENTATION_CONTEXT ( 'NONE', 'WORKASPACE' ) );
#207 = ORIENTED_EDGE ( 'NONE', *, *, #137, .F. ) ;
#208 = AXIS2_PLACEMENT_3D ( 'NONE', #65, #248, #141 ) ;
#209 = CC_DESIGN_PERSON_AND_ORGANIZATION_ASSIGNMENT ( #71, #185, ( #177 ) ) ;
#210 = PRODUCT_RELATED_PRODUCT_CATEGORY ( 'detail', '', ( #177 ) ) ;
#211 = FACE_OUTER_BOUND ( 'NONE', #4, .T. ) ;
#212 = CC_DESIGN_APPROVAL ( #188, ( #239 ) ) ;
#213 = AXIS2_PLACEMENT_3D ( 'NONE', #169, #189, #124 ) ;
#214 = PERSON_AND_ORGANIZATION_ROLE ( 'creator' ) ;
#215 = DIRECTION ( 'NONE',  ( 1.000000000000000000, 0.000000000000000000, 0.000000000000000000 ) ) ;
#216 = VERTEX_POINT ( 'NONE', #3 ) ;
#217 = EDGE_LOOP ( 'NONE', ( #88, #64 ) ) ;
#218 = SHAPE_DEFINITION_REPRESENTATION ( #98, #92 ) ;
#219 = ORIENTED_EDGE ( 'NONE', *, *, #111, .F. ) ;
#220 = CYLINDRICAL_SURFACE ( 'NONE', #213, 5.000000000000000888 ) ;
#221 = AXIS2_PLACEMENT_3D ( 'NONE', #205, #104, #9 ) ;
#222 = VERTEX_POINT ( 'NONE', #183 ) ;
#223 = APPROVAL_DATE_TIME ( #245, #237 ) ;
#224 = ORIENTED_EDGE ( 'NONE', *, *, #175, .F. ) ;
#225 = DIRECTION ( 'NONE',  ( 0.000000000000000000, 0.000000000000000000, 1.000000000000000000 ) ) ;
#226 = UNCERTAINTY_MEASURE_WITH_UNIT (LENGTH_MEASURE( 1.000000000000000082E-05 ), #41, 'distance_accuracy_value', 'NONE');
#227 = CARTESIAN_POINT ( 'NONE',  ( 0.000000000000000000, 0.000000000000000000, 5.000000000000000000 ) ) ;
#228 = CC_DESIGN_DATE_AND_TIME_ASSIGNMENT ( #97, #94, ( #158 ) ) ;
#229 = CARTESIAN_POINT ( 'NONE',  ( 0.000000000000000000, 0.000000000000000000, 5.000000000000000000 ) ) ;
#230 = CARTESIAN_POINT ( 'NONE',  ( 0.000000000000000000, 0.000000000000000000, 1000.000000000000000 ) ) ;
#231 = CALENDAR_DATE ( 2023, 13, 2 ) ;
#232 = APPROVAL_PERSON_ORGANIZATION ( #176, #126, #33 ) ;
#233 = COORDINATED_UNIVERSAL_TIME_OFFSET ( 1, 0, .AHEAD. ) ;
#234 = DATE_AND_TIME ( #93, #131 ) ;
#235 = SECURITY_CLASSIFICATION_LEVEL ( 'unclassified' ) ;
#236 = VERTEX_POINT ( 'NONE', #60 ) ;
#237 = APPROVAL ( #242, 'NEURÈENÝ' ) ;
#238 = APPROVAL_STATUS ( 'not_yet_approved' ) ;
#239 = SECURITY_CLASSIFICATION ( '', '', #235 ) ;
#240 = DIRECTION ( 'NONE',  ( 1.000000000000000000, 0.000000000000000000, 0.000000000000000000 ) ) ;
#241 = VERTEX_POINT ( 'NONE', #142 ) ;
#242 = APPROVAL_STATUS ( 'not_yet_approved' ) ;
#243 = ADVANCED_FACE ( 'NONE', ( #145 ), #151, .T. ) ;
#244 = ORIENTED_EDGE ( 'NONE', *, *, #90, .T. ) ;
#245 = DATE_AND_TIME ( #144, #53 ) ;
#246 = EDGE_LOOP ( 'NONE', ( #224, #146, #103, #27 ) ) ;
#247 = PERSON_AND_ORGANIZATION ( #69, #26 ) ;
#248 = DIRECTION ( 'NONE',  ( 0.000000000000000000, 0.000000000000000000, 1.000000000000000000 ) ) ;
#249 = EDGE_CURVE ( 'NONE', #102, #216, #140, .T. ) ;
#250 = CALENDAR_DATE ( 2023, 13, 2 ) ;
#251 = PERSON_AND_ORGANIZATION_ROLE ( 'classification_officer' ) ;
#252 = APPLICATION_CONTEXT ( 'configuration controlled 3d designs of mechanical parts and assemblies' ) ;
#253 = CC_DESIGN_PERSON_AND_ORGANIZATION_ASSIGNMENT ( #139, #214, ( #47 ) ) ;
#254 = CC_DESIGN_DATE_AND_TIME_ASSIGNMENT ( #234, #113, ( #239 ) ) ;
#255 = VECTOR ( 'NONE', #157, 1000.000000000000000 ) ;
ENDSEC;
END-ISO-10303-21;
