ISO-10303-21;
HEADER;
FILE_DESCRIPTION (( 'STEP AP203' ),
    '1' );
FILE_NAME ('fe23.STEP',
    '2023-02-13T09:21:11',
    ( '' ),
    ( '' ),
    'SwSTEP 2.0',
    'SolidWorks 2019',
    '' );
FILE_SCHEMA (( 'CONFIG_CONTROL_DESIGN' ));
ENDSEC;

DATA;
#1 = PERSON_AND_ORGANIZATION_ROLE ( 'creator' ) ;
#2 = PERSON_AND_ORGANIZATION ( #110, #189 ) ;
#3 = CYLINDRICAL_SURFACE ( 'NONE', #146, 11.00000000000000000 ) ;
#4 = CARTESIAN_POINT ( 'NONE',  ( 0.000000000000000000, 0.000000000000000000, 200.0000000000000000 ) ) ;
#5 = EDGE_CURVE ( 'NONE', #13, #194, #100, .T. ) ;
#6 = DIRECTION ( 'NONE',  ( 1.000000000000000000, 0.000000000000000000, 0.000000000000000000 ) ) ;
#7 = CARTESIAN_POINT ( 'NONE',  ( 0.000000000000000000, 0.000000000000000000, 200.0000000000000000 ) ) ;
#8 = AXIS2_PLACEMENT_3D ( 'NONE', #7, #45, #248 ) ;
#9 = DIRECTION ( 'NONE',  ( -0.000000000000000000, -0.000000000000000000, -1.000000000000000000 ) ) ;
#10 = DIRECTION ( 'NONE',  ( 1.000000000000000000, 0.000000000000000000, 0.000000000000000000 ) ) ;
#11 = ORIENTED_EDGE ( 'NONE', *, *, #218, .F. ) ;
#12 = DIRECTION ( 'NONE',  ( 0.000000000000000000, 0.000000000000000000, 1.000000000000000000 ) ) ;
#13 = VERTEX_POINT ( 'NONE', #232 ) ;
#14 = EDGE_CURVE ( 'NONE', #194, #17, #51, .T. ) ;
#15 = CC_DESIGN_PERSON_AND_ORGANIZATION_ASSIGNMENT ( #197, #120, ( #237 ) ) ;
#16 = CIRCLE ( 'NONE', #159, 8.000000000000000000 ) ;
#17 = VERTEX_POINT ( 'NONE', #113 ) ;
#18 = ORIENTED_EDGE ( 'NONE', *, *, #174, .F. ) ;
#19 = FACE_OUTER_BOUND ( 'NONE', #35, .T. ) ;
#20 = DATE_AND_TIME ( #23, #208 ) ;
#21 = PERSON_AND_ORGANIZATION_ROLE ( 'design_supplier' ) ;
#22 = CC_DESIGN_DATE_AND_TIME_ASSIGNMENT ( #138, #56, ( #31 ) ) ;
#23 = CALENDAR_DATE ( 2023, 13, 2 ) ;
#24 = CYLINDRICAL_SURFACE ( 'NONE', #220, 8.000000000000000000 ) ;
#25 = AXIS2_PLACEMENT_3D ( 'NONE', #83, #241, #84 ) ;
#26 = PRODUCT_DEFINITION ( 'NEZNÁMÝ', '', #237, #102 ) ;
#27 = CARTESIAN_POINT ( 'NONE',  ( 0.000000000000000000, 0.000000000000000000, 7.000000000000000000 ) ) ;
#28 = FACE_OUTER_BOUND ( 'NONE', #112, .T. ) ;
#29 = DIRECTION ( 'NONE',  ( -0.000000000000000000, -0.000000000000000000, -1.000000000000000000 ) ) ;
#30 = PRODUCT ( 'fe23', 'fe23', '', ( #253 ) ) ;
#31 = SECURITY_CLASSIFICATION ( '', '', #97 ) ;
#32 = ORIENTED_EDGE ( 'NONE', *, *, #165, .T. ) ;
#33 = ORIENTED_EDGE ( 'NONE', *, *, #5, .T. ) ;
#34 = CC_DESIGN_APPROVAL ( #187, ( #31 ) ) ;
#35 = EDGE_LOOP ( 'NONE', ( #251, #176 ) ) ;
#36 = ORIENTED_EDGE ( 'NONE', *, *, #226, .T. ) ;
#37 = EDGE_LOOP ( 'NONE', ( #18, #11, #36, #87 ) ) ;
#38 = APPROVAL_DATE_TIME ( #117, #58 ) ;
#39 = LOCAL_TIME ( 10, 21, 11.00000000000000000, #219 ) ;
#40 = DIRECTION ( 'NONE',  ( -1.000000000000000000, 0.000000000000000000, 0.000000000000000000 ) ) ;
#41 = DATE_TIME_ROLE ( 'creation_date' ) ;
#42 = PLANE ( 'NONE',  #171 ) ;
#43 = CIRCLE ( 'NONE', #25, 11.00000000000000000 ) ;
#44 = FACE_BOUND ( 'NONE', #235, .T. ) ;
#45 = DIRECTION ( 'NONE',  ( -0.000000000000000000, -0.000000000000000000, -1.000000000000000000 ) ) ;
#46 =( GEOMETRIC_REPRESENTATION_CONTEXT ( 3 ) GLOBAL_UNCERTAINTY_ASSIGNED_CONTEXT ( ( #64 ) ) GLOBAL_UNIT_ASSIGNED_CONTEXT ( ( #63, #142, #245 ) ) REPRESENTATION_CONTEXT ( 'NONE', 'WORKASPACE' ) );
#47 = DIRECTION ( 'NONE',  ( -0.000000000000000000, -0.000000000000000000, -1.000000000000000000 ) ) ;
#48 = ADVANCED_FACE ( 'NONE', ( #19 ), #190, .F. ) ;
#49 = ORIENTED_EDGE ( 'NONE', *, *, #14, .T. ) ;
#50 = ORIENTED_EDGE ( 'NONE', *, *, #61, .T. ) ;
#51 = LINE ( 'NONE', #135, #130 ) ;
#52 = VERTEX_POINT ( 'NONE', #86 ) ;
#53 = AXIS2_PLACEMENT_3D ( 'NONE', #27, #65, #202 ) ;
#54 = COORDINATED_UNIVERSAL_TIME_OFFSET ( 1, 0, .AHEAD. ) ;
#55 = EDGE_CURVE ( 'NONE', #249, #192, #16, .T. ) ;
#56 = DATE_TIME_ROLE ( 'classification_date' ) ;
#57 = CC_DESIGN_APPROVAL ( #58, ( #237 ) ) ;
#58 = APPROVAL ( #115, 'NEURÈENÝ' ) ;
#59 = CALENDAR_DATE ( 2023, 13, 2 ) ;
#60 = COORDINATED_UNIVERSAL_TIME_OFFSET ( 1, 0, .AHEAD. ) ;
#61 = EDGE_CURVE ( 'NONE', #13, #114, #186, .T. ) ;
#62 = CARTESIAN_POINT ( 'NONE',  ( 8.000000000000000000, 9.797174393178825657E-16, 200.0000000000000000 ) ) ;
#63 =( LENGTH_UNIT ( ) NAMED_UNIT ( * ) SI_UNIT ( .MILLI., .METRE. ) );
#64 = UNCERTAINTY_MEASURE_WITH_UNIT (LENGTH_MEASURE( 1.000000000000000082E-05 ), #63, 'distance_accuracy_value', 'NONE');
#65 = DIRECTION ( 'NONE',  ( 0.000000000000000000, 0.000000000000000000, 1.000000000000000000 ) ) ;
#66 = FACE_OUTER_BOUND ( 'NONE', #230, .T. ) ;
#67 = CARTESIAN_POINT ( 'NONE',  ( 0.000000000000000000, 0.000000000000000000, 0.000000000000000000 ) ) ;
#68 = CARTESIAN_POINT ( 'NONE',  ( 0.000000000000000000, 0.000000000000000000, 200.0000000000000000 ) ) ;
#69 = APPROVAL_PERSON_ORGANIZATION ( #2, #187, #160 ) ;
#70 = ORIENTED_EDGE ( 'NONE', *, *, #14, .F. ) ;
#71 = DIRECTION ( 'NONE',  ( 0.000000000000000000, 0.000000000000000000, 1.000000000000000000 ) ) ;
#72 = ORIENTED_EDGE ( 'NONE', *, *, #96, .T. ) ;
#73 = CIRCLE ( 'NONE', #78, 8.000000000000000000 ) ;
#74 = APPLICATION_PROTOCOL_DEFINITION ( 'international standard', 'config_control_design', 1994, #91 ) ;
#75 = EDGE_CURVE ( 'NONE', #149, #52, #180, .T. ) ;
#76 = DATE_AND_TIME ( #181, #254 ) ;
#77 = DIRECTION ( 'NONE',  ( 1.000000000000000000, 0.000000000000000000, 0.000000000000000000 ) ) ;
#78 = AXIS2_PLACEMENT_3D ( 'NONE', #4, #184, #6 ) ;
#79 = CC_DESIGN_SECURITY_CLASSIFICATION ( #31, ( #237 ) ) ;
#80 = APPLICATION_PROTOCOL_DEFINITION ( 'international standard', 'config_control_design', 1994, #242 ) ;
#81 = EDGE_CURVE ( 'NONE', #17, #114, #122, .T. ) ;
#82 = CARTESIAN_POINT ( 'NONE',  ( 0.000000000000000000, 0.000000000000000000, 7.000000000000000000 ) ) ;
#83 = CARTESIAN_POINT ( 'NONE',  ( 0.000000000000000000, 0.000000000000000000, 0.000000000000000000 ) ) ;
#84 = DIRECTION ( 'NONE',  ( 1.000000000000000000, 0.000000000000000000, 0.000000000000000000 ) ) ;
#85 = CYLINDRICAL_SURFACE ( 'NONE', #143, 11.00000000000000000 ) ;
#86 = CARTESIAN_POINT ( 'NONE',  ( 8.000000000000000000, 9.797174393178825657E-16, 7.000000000000000000 ) ) ;
#87 = ORIENTED_EDGE ( 'NONE', *, *, #75, .T. ) ;
#88 = CARTESIAN_POINT ( 'NONE',  ( -11.00000000000000000, 0.000000000000000000, 7.000000000000000000 ) ) ;
#89 = CC_DESIGN_PERSON_AND_ORGANIZATION_ASSIGNMENT ( #222, #156, ( #30 ) ) ;
#90 = AXIS2_PLACEMENT_3D ( 'NONE', #107, #209, #128 ) ;
#91 = APPLICATION_CONTEXT ( 'configuration controlled 3d designs of mechanical parts and assemblies' ) ;
#92 = CC_DESIGN_DATE_AND_TIME_ASSIGNMENT ( #76, #41, ( #26 ) ) ;
#93 = APPROVAL_ROLE ( '' ) ;
#94 = CLOSED_SHELL ( 'NONE', ( #204, #104, #144, #177, #48, #118, #126 ) ) ;
#95 = SHAPE_DEFINITION_REPRESENTATION ( #169, #133 ) ;
#96 = EDGE_CURVE ( 'NONE', #194, #13, #136, .T. ) ;
#97 = SECURITY_CLASSIFICATION_LEVEL ( 'unclassified' ) ;
#98 = APPROVAL_DATE_TIME ( #20, #187 ) ;
#99 = CARTESIAN_POINT ( 'NONE',  ( -8.000000000000000000, 0.000000000000000000, 200.0000000000000000 ) ) ;
#100 = CIRCLE ( 'NONE', #213, 11.00000000000000000 ) ;
#101 = CARTESIAN_POINT ( 'NONE',  ( -8.000000000000000000, 0.000000000000000000, 7.000000000000000000 ) ) ;
#102 = DESIGN_CONTEXT ( 'detailed design', #242, 'design' ) ;
#103 = DIRECTION ( 'NONE',  ( 1.000000000000000000, 0.000000000000000000, -0.000000000000000000 ) ) ;
#104 = ADVANCED_FACE ( 'NONE', ( #170 ), #85, .T. ) ;
#105 = AXIS2_PLACEMENT_3D ( 'NONE', #108, #145, #228 ) ;
#106 = FACE_OUTER_BOUND ( 'NONE', #173, .T. ) ;
#107 = CARTESIAN_POINT ( 'NONE',  ( 0.000000000000000000, 0.000000000000000000, 7.000000000000000000 ) ) ;
#108 = CARTESIAN_POINT ( 'NONE',  ( 0.000000000000000000, 0.000000000000000000, 7.000000000000000000 ) ) ;
#109 = AXIS2_PLACEMENT_3D ( 'NONE', #67, #147, #129 ) ;
#110 = PERSON ( 'NEURÈENÝ', 'NEURÈENÝ', 'NEURÈENÝ', ('NEURÈENÝ'), ('NEURÈENÝ'), ('NEURÈENÝ') ) ;
#111 = ORIENTED_EDGE ( 'NONE', *, *, #61, .F. ) ;
#112 = EDGE_LOOP ( 'NONE', ( #70, #134, #50, #32 ) ) ;
#113 = CARTESIAN_POINT ( 'NONE',  ( 11.00000000000000000, 1.347111479062088405E-15, 0.000000000000000000 ) ) ;
#114 = VERTEX_POINT ( 'NONE', #163 ) ;
#115 = APPROVAL_STATUS ( 'not_yet_approved' ) ;
#116 = CALENDAR_DATE ( 2023, 13, 2 ) ;
#117 = DATE_AND_TIME ( #116, #39 ) ;
#118 = ADVANCED_FACE ( 'NONE', ( #206 ), #168, .T. ) ;
#119 = PRODUCT_RELATED_PRODUCT_CATEGORY ( 'detail', '', ( #30 ) ) ;
#120 = PERSON_AND_ORGANIZATION_ROLE ( 'creator' ) ;
#121 = CARTESIAN_POINT ( 'NONE',  ( 11.00000000000000000, 1.347111479062088405E-15, 7.000000000000000000 ) ) ;
#122 = CIRCLE ( 'NONE', #155, 11.00000000000000000 ) ;
#123 = CARTESIAN_POINT ( 'NONE',  ( -8.000000000000000000, 0.000000000000000000, 200.0000000000000000 ) ) ;
#124 = APPROVAL ( #162, 'NEURÈENÝ' ) ;
#125 = DIRECTION ( 'NONE',  ( 0.000000000000000000, 0.000000000000000000, 1.000000000000000000 ) ) ;
#126 = ADVANCED_FACE ( 'NONE', ( #66 ), #42, .T. ) ;
#127 = CARTESIAN_POINT ( 'NONE',  ( 0.000000000000000000, 0.000000000000000000, 200.0000000000000000 ) ) ;
#128 = DIRECTION ( 'NONE',  ( 1.000000000000000000, 0.000000000000000000, 0.000000000000000000 ) ) ;
#129 = DIRECTION ( 'NONE',  ( 1.000000000000000000, 0.000000000000000000, -0.000000000000000000 ) ) ;
#130 = VECTOR ( 'NONE', #212, 1000.000000000000000 ) ;
#131 = CARTESIAN_POINT ( 'NONE',  ( 0.000000000000000000, 0.000000000000000000, 0.000000000000000000 ) ) ;
#132 = CC_DESIGN_PERSON_AND_ORGANIZATION_ASSIGNMENT ( #199, #21, ( #237 ) ) ;
#133 = ADVANCED_BREP_SHAPE_REPRESENTATION ( 'fe23', ( #239, #150 ), #46 ) ;
#134 = ORIENTED_EDGE ( 'NONE', *, *, #5, .F. ) ;
#135 = CARTESIAN_POINT ( 'NONE',  ( 11.00000000000000000, 1.347111479062088405E-15, 7.000000000000000000 ) ) ;
#136 = CIRCLE ( 'NONE', #90, 11.00000000000000000 ) ;
#137 = ORIENTED_EDGE ( 'NONE', *, *, #218, .T. ) ;
#138 = DATE_AND_TIME ( #236, #185 ) ;
#139 = ORIENTED_EDGE ( 'NONE', *, *, #55, .T. ) ;
#140 = DATE_AND_TIME ( #59, #233 ) ;
#141 = PERSON_AND_ORGANIZATION ( #110, #189 ) ;
#142 =( NAMED_UNIT ( * ) PLANE_ANGLE_UNIT ( ) SI_UNIT ( $, .RADIAN. ) );
#143 = AXIS2_PLACEMENT_3D ( 'NONE', #229, #47, #188 ) ;
#144 = ADVANCED_FACE ( 'NONE', ( #28 ), #3, .T. ) ;
#145 = DIRECTION ( 'NONE',  ( 0.000000000000000000, 0.000000000000000000, 1.000000000000000000 ) ) ;
#146 = AXIS2_PLACEMENT_3D ( 'NONE', #205, #247, #40 ) ;
#147 = DIRECTION ( 'NONE',  ( 0.000000000000000000, 0.000000000000000000, 1.000000000000000000 ) ) ;
#148 = DIRECTION ( 'NONE',  ( 1.000000000000000000, 0.000000000000000000, 0.000000000000000000 ) ) ;
#149 = VERTEX_POINT ( 'NONE', #101 ) ;
#150 = AXIS2_PLACEMENT_3D ( 'NONE', #157, #178, #77 ) ;
#151 = EDGE_LOOP ( 'NONE', ( #215, #49, #195, #111 ) ) ;
#152 = DIRECTION ( 'NONE',  ( 1.000000000000000000, 0.000000000000000000, 0.000000000000000000 ) ) ;
#153 = ORIENTED_EDGE ( 'NONE', *, *, #75, .F. ) ;
#154 = ORIENTED_EDGE ( 'NONE', *, *, #55, .F. ) ;
#155 = AXIS2_PLACEMENT_3D ( 'NONE', #131, #211, #10 ) ;
#156 = PERSON_AND_ORGANIZATION_ROLE ( 'design_owner' ) ;
#157 = CARTESIAN_POINT ( 'NONE',  ( 0.000000000000000000, 0.000000000000000000, 0.000000000000000000 ) ) ;
#158 = APPROVAL_DATE_TIME ( #140, #124 ) ;
#159 = AXIS2_PLACEMENT_3D ( 'NONE', #68, #12, #148 ) ;
#160 = APPROVAL_ROLE ( '' ) ;
#161 = CC_DESIGN_PERSON_AND_ORGANIZATION_ASSIGNMENT ( #217, #240, ( #31 ) ) ;
#162 = APPROVAL_STATUS ( 'not_yet_approved' ) ;
#163 = CARTESIAN_POINT ( 'NONE',  ( -11.00000000000000000, 0.000000000000000000, 0.000000000000000000 ) ) ;
#164 = DIRECTION ( 'NONE',  ( 1.000000000000000000, 0.000000000000000000, -0.000000000000000000 ) ) ;
#165 = EDGE_CURVE ( 'NONE', #114, #17, #43, .T. ) ;
#166 = PLANE ( 'NONE',  #179 ) ;
#167 = DIRECTION ( 'NONE',  ( 0.000000000000000000, 0.000000000000000000, 1.000000000000000000 ) ) ;
#168 = CYLINDRICAL_SURFACE ( 'NONE', #8, 8.000000000000000000 ) ;
#169 = PRODUCT_DEFINITION_SHAPE ( 'NONE', 'NONE',  #26 ) ;
#170 = FACE_OUTER_BOUND ( 'NONE', #151, .T. ) ;
#171 = AXIS2_PLACEMENT_3D ( 'NONE', #127, #167, #164 ) ;
#172 = VECTOR ( 'NONE', #29, 1000.000000000000000 ) ;
#173 = EDGE_LOOP ( 'NONE', ( #154, #231, #216, #196 ) ) ;
#174 = EDGE_CURVE ( 'NONE', #249, #52, #207, .T. ) ;
#175 = APPROVAL_PERSON_ORGANIZATION ( #221, #58, #93 ) ;
#176 = ORIENTED_EDGE ( 'NONE', *, *, #81, .F. ) ;
#177 = ADVANCED_FACE ( 'NONE', ( #44, #227 ), #166, .T. ) ;
#178 = DIRECTION ( 'NONE',  ( 0.000000000000000000, 0.000000000000000000, 1.000000000000000000 ) ) ;
#179 = AXIS2_PLACEMENT_3D ( 'NONE', #82, #125, #103 ) ;
#180 = CIRCLE ( 'NONE', #105, 8.000000000000000000 ) ;
#181 = CALENDAR_DATE ( 2023, 13, 2 ) ;
#182 = CARTESIAN_POINT ( 'NONE',  ( 0.000000000000000000, 0.000000000000000000, 200.0000000000000000 ) ) ;
#183 = CARTESIAN_POINT ( 'NONE',  ( 8.000000000000000000, 9.797174393178825657E-16, 200.0000000000000000 ) ) ;
#184 = DIRECTION ( 'NONE',  ( 0.000000000000000000, 0.000000000000000000, 1.000000000000000000 ) ) ;
#185 = LOCAL_TIME ( 10, 21, 11.00000000000000000, #203 ) ;
#186 = LINE ( 'NONE', #88, #198 ) ;
#187 = APPROVAL ( #200, 'NEURÈENÝ' ) ;
#188 = DIRECTION ( 'NONE',  ( -1.000000000000000000, 0.000000000000000000, 0.000000000000000000 ) ) ;
#189 = ORGANIZATION ( 'NEURÈENÝ', 'NEURÈENÝ', '' ) ;
#190 = PLANE ( 'NONE',  #109 ) ;
#191 = EDGE_CURVE ( 'NONE', #52, #149, #244, .T. ) ;
#192 = VERTEX_POINT ( 'NONE', #123 ) ;
#193 = APPROVAL_PERSON_ORGANIZATION ( #238, #124, #255 ) ;
#194 = VERTEX_POINT ( 'NONE', #121 ) ;
#195 = ORIENTED_EDGE ( 'NONE', *, *, #81, .T. ) ;
#196 = ORIENTED_EDGE ( 'NONE', *, *, #226, .F. ) ;
#197 = PERSON_AND_ORGANIZATION ( #110, #189 ) ;
#198 = VECTOR ( 'NONE', #9, 1000.000000000000000 ) ;
#199 = PERSON_AND_ORGANIZATION ( #110, #189 ) ;
#200 = APPROVAL_STATUS ( 'not_yet_approved' ) ;
#201 = COORDINATED_UNIVERSAL_TIME_OFFSET ( 1, 0, .AHEAD. ) ;
#202 = DIRECTION ( 'NONE',  ( 1.000000000000000000, 0.000000000000000000, 0.000000000000000000 ) ) ;
#203 = COORDINATED_UNIVERSAL_TIME_OFFSET ( 1, 0, .AHEAD. ) ;
#204 = ADVANCED_FACE ( 'NONE', ( #106 ), #24, .T. ) ;
#205 = CARTESIAN_POINT ( 'NONE',  ( 0.000000000000000000, 0.000000000000000000, 7.000000000000000000 ) ) ;
#206 = FACE_OUTER_BOUND ( 'NONE', #37, .T. ) ;
#207 = LINE ( 'NONE', #183, #172 ) ;
#208 = LOCAL_TIME ( 10, 21, 11.00000000000000000, #201 ) ;
#209 = DIRECTION ( 'NONE',  ( 0.000000000000000000, 0.000000000000000000, 1.000000000000000000 ) ) ;
#210 = VECTOR ( 'NONE', #243, 1000.000000000000000 ) ;
#211 = DIRECTION ( 'NONE',  ( 0.000000000000000000, 0.000000000000000000, 1.000000000000000000 ) ) ;
#212 = DIRECTION ( 'NONE',  ( -0.000000000000000000, -0.000000000000000000, -1.000000000000000000 ) ) ;
#213 = AXIS2_PLACEMENT_3D ( 'NONE', #234, #71, #152 ) ;
#215 = ORIENTED_EDGE ( 'NONE', *, *, #96, .F. ) ;
#214 = CC_DESIGN_PERSON_AND_ORGANIZATION_ASSIGNMENT ( #141, #1, ( #26 ) ) ;
#216 = ORIENTED_EDGE ( 'NONE', *, *, #191, .T. ) ;
#217 = PERSON_AND_ORGANIZATION ( #110, #189 ) ;
#218 = EDGE_CURVE ( 'NONE', #192, #249, #73, .T. ) ;
#219 = COORDINATED_UNIVERSAL_TIME_OFFSET ( 1, 0, .AHEAD. ) ;
#220 = AXIS2_PLACEMENT_3D ( 'NONE', #182, #223, #246 ) ;
#221 = PERSON_AND_ORGANIZATION ( #110, #189 ) ;
#222 = PERSON_AND_ORGANIZATION ( #110, #189 ) ;
#223 = DIRECTION ( 'NONE',  ( -0.000000000000000000, -0.000000000000000000, -1.000000000000000000 ) ) ;
#224 = CC_DESIGN_APPROVAL ( #124, ( #26 ) ) ;
#225 = LINE ( 'NONE', #99, #210 ) ;
#226 = EDGE_CURVE ( 'NONE', #192, #149, #225, .T. ) ;
#227 = FACE_OUTER_BOUND ( 'NONE', #250, .T. ) ;
#228 = DIRECTION ( 'NONE',  ( 1.000000000000000000, 0.000000000000000000, 0.000000000000000000 ) ) ;
#229 = CARTESIAN_POINT ( 'NONE',  ( 0.000000000000000000, 0.000000000000000000, 7.000000000000000000 ) ) ;
#230 = EDGE_LOOP ( 'NONE', ( #137, #139 ) ) ;
#231 = ORIENTED_EDGE ( 'NONE', *, *, #174, .T. ) ;
#232 = CARTESIAN_POINT ( 'NONE',  ( -11.00000000000000000, 0.000000000000000000, 7.000000000000000000 ) ) ;
#233 = LOCAL_TIME ( 10, 21, 11.00000000000000000, #60 ) ;
#234 = CARTESIAN_POINT ( 'NONE',  ( 0.000000000000000000, 0.000000000000000000, 7.000000000000000000 ) ) ;
#235 = EDGE_LOOP ( 'NONE', ( #153, #252 ) ) ;
#236 = CALENDAR_DATE ( 2023, 13, 2 ) ;
#237 = PRODUCT_DEFINITION_FORMATION_WITH_SPECIFIED_SOURCE ( 'LIBOVOLNÝ', '', #30, .NOT_KNOWN. ) ;
#238 = PERSON_AND_ORGANIZATION ( #110, #189 ) ;
#239 = MANIFOLD_SOLID_BREP ( 'Pøidat vysunutím3', #94 ) ;
#240 = PERSON_AND_ORGANIZATION_ROLE ( 'classification_officer' ) ;
#241 = DIRECTION ( 'NONE',  ( 0.000000000000000000, 0.000000000000000000, 1.000000000000000000 ) ) ;
#242 = APPLICATION_CONTEXT ( 'configuration controlled 3d designs of mechanical parts and assemblies' ) ;
#243 = DIRECTION ( 'NONE',  ( -0.000000000000000000, -0.000000000000000000, -1.000000000000000000 ) ) ;
#244 = CIRCLE ( 'NONE', #53, 8.000000000000000000 ) ;
#245 =( NAMED_UNIT ( * ) SI_UNIT ( $, .STERADIAN. ) SOLID_ANGLE_UNIT ( ) );
#246 = DIRECTION ( 'NONE',  ( -1.000000000000000000, 0.000000000000000000, 0.000000000000000000 ) ) ;
#247 = DIRECTION ( 'NONE',  ( -0.000000000000000000, -0.000000000000000000, -1.000000000000000000 ) ) ;
#248 = DIRECTION ( 'NONE',  ( -1.000000000000000000, 0.000000000000000000, 0.000000000000000000 ) ) ;
#249 = VERTEX_POINT ( 'NONE', #62 ) ;
#250 = EDGE_LOOP ( 'NONE', ( #33, #72 ) ) ;
#251 = ORIENTED_EDGE ( 'NONE', *, *, #165, .F. ) ;
#252 = ORIENTED_EDGE ( 'NONE', *, *, #191, .F. ) ;
#253 = MECHANICAL_CONTEXT ( 'NONE', #91, 'mechanical' ) ;
#254 = LOCAL_TIME ( 10, 21, 11.00000000000000000, #54 ) ;
#255 = APPROVAL_ROLE ( '' ) ;
ENDSEC;
END-ISO-10303-21;
