ISO-10303-21;
HEADER;
FILE_DESCRIPTION (( 'STEP AP203' ),
    '1' );
FILE_NAME ('e6c6.STEP',
    '2023-02-13T11:11:16',
    ( '' ),
    ( '' ),
    'SwSTEP 2.0',
    'SolidWorks 2019',
    '' );
FILE_SCHEMA (( 'CONFIG_CONTROL_DESIGN' ));
ENDSEC;

DATA;
#1 = CARTESIAN_POINT ( 'NONE',  ( 0.000000000000000000, 0.000000000000000000, 5.000000000000000000 ) ) ;
#2 =( GEOMETRIC_REPRESENTATION_CONTEXT ( 3 ) GLOBAL_UNCERTAINTY_ASSIGNED_CONTEXT ( ( #116 ) ) GLOBAL_UNIT_ASSIGNED_CONTEXT ( ( #138, #72, #209 ) ) REPRESENTATION_CONTEXT ( 'NONE', 'WORKASPACE' ) );
#3 = DIRECTION ( 'NONE',  ( 1.000000000000000000, 0.000000000000000000, -0.000000000000000000 ) ) ;
#4 = PERSON ( 'NEURÈENÝ', 'NEURÈENÝ', 'NEURÈENÝ', ('NEURÈENÝ'), ('NEURÈENÝ'), ('NEURÈENÝ') ) ;
#5 = DATE_AND_TIME ( #203, #29 ) ;
#6 = CARTESIAN_POINT ( 'NONE',  ( 5.250000000000000888, 6.429395695523605139E-16, 5.000000000000000000 ) ) ;
#7 = ADVANCED_FACE ( 'NONE', ( #139 ), #210, .T. ) ;
#8 = AXIS2_PLACEMENT_3D ( 'NONE', #129, #92, #184 ) ;
#9 = APPROVAL_ROLE ( '' ) ;
#10 = APPLICATION_PROTOCOL_DEFINITION ( 'international standard', 'config_control_design', 1994, #255 ) ;
#11 = EDGE_LOOP ( 'NONE', ( #31, #156 ) ) ;
#12 = DIRECTION ( 'NONE',  ( 1.000000000000000000, 0.000000000000000000, 0.000000000000000000 ) ) ;
#13 = VERTEX_POINT ( 'NONE', #16 ) ;
#14 = ORGANIZATION ( 'NEURÈENÝ', 'NEURÈENÝ', '' ) ;
#15 = CC_DESIGN_PERSON_AND_ORGANIZATION_ASSIGNMENT ( #143, #84, ( #197 ) ) ;
#16 = CARTESIAN_POINT ( 'NONE',  ( -5.250000000000000888, 0.000000000000000000, 500.0000000000000000 ) ) ;
#17 = CARTESIAN_POINT ( 'NONE',  ( 8.000000000000000000, 9.797174393178825657E-16, 5.000000000000000000 ) ) ;
#18 = EDGE_CURVE ( 'NONE', #42, #51, #177, .T. ) ;
#19 = PERSON_AND_ORGANIZATION ( #4, #14 ) ;
#20 = CC_DESIGN_PERSON_AND_ORGANIZATION_ASSIGNMENT ( #39, #127, ( #185 ) ) ;
#21 = CARTESIAN_POINT ( 'NONE',  ( -5.250000000000000888, 0.000000000000000000, 5.000000000000000000 ) ) ;
#22 = CIRCLE ( 'NONE', #234, 5.250000000000000888 ) ;
#23 = FACE_OUTER_BOUND ( 'NONE', #111, .T. ) ;
#24 = AXIS2_PLACEMENT_3D ( 'NONE', #149, #166, #117 ) ;
#25 = ORIENTED_EDGE ( 'NONE', *, *, #142, .F. ) ;
#26 = PLANE ( 'NONE',  #8 ) ;
#27 = ADVANCED_FACE ( 'NONE', ( #251 ), #86, .F. ) ;
#28 = VERTEX_POINT ( 'NONE', #21 ) ;
#29 = LOCAL_TIME ( 12, 11, 16.00000000000000000, #106 ) ;
#30 = DIRECTION ( 'NONE',  ( -0.000000000000000000, -0.000000000000000000, -1.000000000000000000 ) ) ;
#31 = ORIENTED_EDGE ( 'NONE', *, *, #75, .F. ) ;
#32 = EDGE_LOOP ( 'NONE', ( #76, #231, #52, #25 ) ) ;
#33 = CARTESIAN_POINT ( 'NONE',  ( 0.000000000000000000, 0.000000000000000000, 500.0000000000000000 ) ) ;
#34 = EDGE_LOOP ( 'NONE', ( #198, #175, #53, #163 ) ) ;
#35 = CYLINDRICAL_SURFACE ( 'NONE', #227, 8.000000000000000000 ) ;
#36 = ORIENTED_EDGE ( 'NONE', *, *, #121, .F. ) ;
#37 = EDGE_CURVE ( 'NONE', #145, #28, #66, .T. ) ;
#38 = FACE_OUTER_BOUND ( 'NONE', #247, .T. ) ;
#39 = PERSON_AND_ORGANIZATION ( #4, #14 ) ;
#40 = LOCAL_TIME ( 12, 11, 16.00000000000000000, #213 ) ;
#41 = APPLICATION_CONTEXT ( 'configuration controlled 3d designs of mechanical parts and assemblies' ) ;
#42 = VERTEX_POINT ( 'NONE', #59 ) ;
#43 = DIRECTION ( 'NONE',  ( -0.000000000000000000, -0.000000000000000000, -1.000000000000000000 ) ) ;
#44 = VERTEX_POINT ( 'NONE', #239 ) ;
#45 = ADVANCED_BREP_SHAPE_REPRESENTATION ( 'e6c6', ( #91, #222 ), #2 ) ;
#46 = CARTESIAN_POINT ( 'NONE',  ( 0.000000000000000000, 0.000000000000000000, 500.0000000000000000 ) ) ;
#47 = ADVANCED_FACE ( 'NONE', ( #83 ), #35, .T. ) ;
#48 = LINE ( 'NONE', #241, #141 ) ;
#49 = LINE ( 'NONE', #152, #243 ) ;
#50 = PRODUCT ( 'e6c6', 'e6c6', '', ( #226 ) ) ;
#51 = VERTEX_POINT ( 'NONE', #88 ) ;
#52 = ORIENTED_EDGE ( 'NONE', *, *, #153, .T. ) ;
#53 = ORIENTED_EDGE ( 'NONE', *, *, #142, .T. ) ;
#54 = CC_DESIGN_DATE_AND_TIME_ASSIGNMENT ( #62, #99, ( #168 ) ) ;
#55 = EDGE_LOOP ( 'NONE', ( #36, #205, #237, #97 ) ) ;
#56 = APPROVAL_DATE_TIME ( #207, #126 ) ;
#57 = EDGE_CURVE ( 'NONE', #42, #44, #165, .T. ) ;
#58 = DIRECTION ( 'NONE',  ( 0.000000000000000000, 0.000000000000000000, 1.000000000000000000 ) ) ;
#59 = CARTESIAN_POINT ( 'NONE',  ( 8.000000000000000000, 9.797174393178825657E-16, 5.000000000000000000 ) ) ;
#60 = SECURITY_CLASSIFICATION_LEVEL ( 'unclassified' ) ;
#61 = AXIS2_PLACEMENT_3D ( 'NONE', #33, #194, #81 ) ;
#62 = DATE_AND_TIME ( #101, #104 ) ;
#63 = CC_DESIGN_APPROVAL ( #79, ( #185 ) ) ;
#64 = ORIENTED_EDGE ( 'NONE', *, *, #112, .T. ) ;
#65 = DIRECTION ( 'NONE',  ( 0.000000000000000000, 0.000000000000000000, 1.000000000000000000 ) ) ;
#66 = CIRCLE ( 'NONE', #188, 5.250000000000000888 ) ;
#67 = CC_DESIGN_PERSON_AND_ORGANIZATION_ASSIGNMENT ( #19, #105, ( #197 ) ) ;
#68 = CARTESIAN_POINT ( 'NONE',  ( 0.000000000000000000, 0.000000000000000000, 5.000000000000000000 ) ) ;
#69 = APPROVAL_DATE_TIME ( #137, #79 ) ;
#70 = DIRECTION ( 'NONE',  ( 0.000000000000000000, 0.000000000000000000, 1.000000000000000000 ) ) ;
#71 = AXIS2_PLACEMENT_3D ( 'NONE', #232, #30, #135 ) ;
#72 =( NAMED_UNIT ( * ) PLANE_ANGLE_UNIT ( ) SI_UNIT ( $, .RADIAN. ) );
#73 = CALENDAR_DATE ( 2023, 13, 2 ) ;
#74 = FACE_OUTER_BOUND ( 'NONE', #140, .T. ) ;
#75 = EDGE_CURVE ( 'NONE', #157, #44, #225, .T. ) ;
#76 = ORIENTED_EDGE ( 'NONE', *, *, #18, .F. ) ;
#77 = LOCAL_TIME ( 12, 11, 16.00000000000000000, #131 ) ;
#78 = CYLINDRICAL_SURFACE ( 'NONE', #221, 8.000000000000000000 ) ;
#79 = APPROVAL ( #182, 'NEURÈENÝ' ) ;
#80 = CYLINDRICAL_SURFACE ( 'NONE', #71, 5.250000000000000888 ) ;
#81 = DIRECTION ( 'NONE',  ( -1.000000000000000000, 0.000000000000000000, 0.000000000000000000 ) ) ;
#82 = COORDINATED_UNIVERSAL_TIME_OFFSET ( 1, 0, .AHEAD. ) ;
#83 = FACE_OUTER_BOUND ( 'NONE', #34, .T. ) ;
#84 = PERSON_AND_ORGANIZATION_ROLE ( 'design_supplier' ) ;
#85 = PERSON_AND_ORGANIZATION_ROLE ( 'creator' ) ;
#86 = PLANE ( 'NONE',  #238 ) ;
#87 = CIRCLE ( 'NONE', #109, 8.000000000000000000 ) ;
#88 = CARTESIAN_POINT ( 'NONE',  ( -8.000000000000000000, 0.000000000000000000, 5.000000000000000000 ) ) ;
#89 = ADVANCED_FACE ( 'NONE', ( #38 ), #169, .T. ) ;
#90 = APPROVAL ( #179, 'NEURÈENÝ' ) ;
#91 = MANIFOLD_SOLID_BREP ( 'Pøidat vysunutím3', #114 ) ;
#92 = DIRECTION ( 'NONE',  ( 0.000000000000000000, 0.000000000000000000, 1.000000000000000000 ) ) ;
#93 = DIRECTION ( 'NONE',  ( 1.000000000000000000, 0.000000000000000000, 0.000000000000000000 ) ) ;
#94 = EDGE_CURVE ( 'NONE', #254, #145, #49, .T. ) ;
#95 = CC_DESIGN_DATE_AND_TIME_ASSIGNMENT ( #5, #144, ( #185 ) ) ;
#96 = AXIS2_PLACEMENT_3D ( 'NONE', #158, #233, #253 ) ;
#97 = ORIENTED_EDGE ( 'NONE', *, *, #112, .F. ) ;
#98 = APPLICATION_PROTOCOL_DEFINITION ( 'international standard', 'config_control_design', 1994, #41 ) ;
#99 = DATE_TIME_ROLE ( 'creation_date' ) ;
#100 = DIRECTION ( 'NONE',  ( -0.000000000000000000, -0.000000000000000000, -1.000000000000000000 ) ) ;
#101 = CALENDAR_DATE ( 2023, 13, 2 ) ;
#102 = CARTESIAN_POINT ( 'NONE',  ( 0.000000000000000000, 0.000000000000000000, 5.000000000000000000 ) ) ;
#103 = ORIENTED_EDGE ( 'NONE', *, *, #37, .F. ) ;
#104 = LOCAL_TIME ( 12, 11, 16.00000000000000000, #82 ) ;
#105 = PERSON_AND_ORGANIZATION_ROLE ( 'creator' ) ;
#106 = COORDINATED_UNIVERSAL_TIME_OFFSET ( 1, 0, .AHEAD. ) ;
#107 = DIRECTION ( 'NONE',  ( 0.000000000000000000, 0.000000000000000000, 1.000000000000000000 ) ) ;
#108 = AXIS2_PLACEMENT_3D ( 'NONE', #214, #58, #195 ) ;
#109 = AXIS2_PLACEMENT_3D ( 'NONE', #68, #113, #224 ) ;
#110 = CARTESIAN_POINT ( 'NONE',  ( 0.000000000000000000, 0.000000000000000000, 500.0000000000000000 ) ) ;
#111 = EDGE_LOOP ( 'NONE', ( #136, #120 ) ) ;
#112 = EDGE_CURVE ( 'NONE', #13, #28, #48, .T. ) ;
#113 = DIRECTION ( 'NONE',  ( 0.000000000000000000, 0.000000000000000000, 1.000000000000000000 ) ) ;
#114 = CLOSED_SHELL ( 'NONE', ( #7, #240, #47, #201, #27, #252, #89 ) ) ;
#115 = DIRECTION ( 'NONE',  ( 1.000000000000000000, 0.000000000000000000, 0.000000000000000000 ) ) ;
#116 = UNCERTAINTY_MEASURE_WITH_UNIT (LENGTH_MEASURE( 1.000000000000000082E-05 ), #138, 'distance_accuracy_value', 'NONE');
#117 = DIRECTION ( 'NONE',  ( 1.000000000000000000, 0.000000000000000000, 0.000000000000000000 ) ) ;
#118 = CARTESIAN_POINT ( 'NONE',  ( 0.000000000000000000, 0.000000000000000000, 0.000000000000000000 ) ) ;
#119 = APPROVAL_STATUS ( 'not_yet_approved' ) ;
#120 = ORIENTED_EDGE ( 'NONE', *, *, #18, .T. ) ;
#121 = EDGE_CURVE ( 'NONE', #254, #13, #22, .T. ) ;
#122 = ORIENTED_EDGE ( 'NONE', *, *, #133, .T. ) ;
#123 = CIRCLE ( 'NONE', #125, 5.250000000000000888 ) ;
#124 = ORIENTED_EDGE ( 'NONE', *, *, #133, .F. ) ;
#125 = AXIS2_PLACEMENT_3D ( 'NONE', #170, #70, #12 ) ;
#126 = APPROVAL ( #119, 'NEURÈENÝ' ) ;
#127 = PERSON_AND_ORGANIZATION_ROLE ( 'classification_officer' ) ;
#128 = CARTESIAN_POINT ( 'NONE',  ( -8.000000000000000000, 0.000000000000000000, 5.000000000000000000 ) ) ;
#129 = CARTESIAN_POINT ( 'NONE',  ( 0.000000000000000000, 0.000000000000000000, 5.000000000000000000 ) ) ;
#130 = DIRECTION ( 'NONE',  ( 0.000000000000000000, 0.000000000000000000, 1.000000000000000000 ) ) ;
#131 = COORDINATED_UNIVERSAL_TIME_OFFSET ( 1, 0, .AHEAD. ) ;
#132 = CARTESIAN_POINT ( 'NONE',  ( 0.000000000000000000, 0.000000000000000000, 5.000000000000000000 ) ) ;
#133 = EDGE_CURVE ( 'NONE', #13, #254, #159, .T. ) ;
#134 = DESIGN_CONTEXT ( 'detailed design', #41, 'design' ) ;
#135 = DIRECTION ( 'NONE',  ( -1.000000000000000000, 0.000000000000000000, 0.000000000000000000 ) ) ;
#136 = ORIENTED_EDGE ( 'NONE', *, *, #162, .T. ) ;
#137 = DATE_AND_TIME ( #73, #77 ) ;
#138 =( LENGTH_UNIT ( ) NAMED_UNIT ( * ) SI_UNIT ( .MILLI., .METRE. ) );
#139 = FACE_OUTER_BOUND ( 'NONE', #55, .T. ) ;
#140 = EDGE_LOOP ( 'NONE', ( #211, #124, #64, #180 ) ) ;
#141 = VECTOR ( 'NONE', #202, 1000.000000000000000 ) ;
#142 = EDGE_CURVE ( 'NONE', #51, #157, #220, .T. ) ;
#143 = PERSON_AND_ORGANIZATION ( #4, #14 ) ;
#144 = DATE_TIME_ROLE ( 'classification_date' ) ;
#145 = VERTEX_POINT ( 'NONE', #6 ) ;
#146 = DIRECTION ( 'NONE',  ( 1.000000000000000000, 0.000000000000000000, 0.000000000000000000 ) ) ;
#147 = LOCAL_TIME ( 12, 11, 16.00000000000000000, #244 ) ;
#148 = DIRECTION ( 'NONE',  ( -0.000000000000000000, -0.000000000000000000, -1.000000000000000000 ) ) ;
#149 = CARTESIAN_POINT ( 'NONE',  ( 0.000000000000000000, 0.000000000000000000, 0.000000000000000000 ) ) ;
#150 = AXIS2_PLACEMENT_3D ( 'NONE', #46, #223, #3 ) ;
#151 = APPROVAL_PERSON_ORGANIZATION ( #171, #126, #187 ) ;
#152 = CARTESIAN_POINT ( 'NONE',  ( 5.250000000000000888, 6.429395695523605139E-16, 500.0000000000000000 ) ) ;
#153 = EDGE_CURVE ( 'NONE', #44, #157, #229, .T. ) ;
#154 = CALENDAR_DATE ( 2023, 13, 2 ) ;
#155 = ORIENTED_EDGE ( 'NONE', *, *, #228, .F. ) ;
#156 = ORIENTED_EDGE ( 'NONE', *, *, #153, .F. ) ;
#157 = VERTEX_POINT ( 'NONE', #200 ) ;
#158 = CARTESIAN_POINT ( 'NONE',  ( 0.000000000000000000, 0.000000000000000000, 5.000000000000000000 ) ) ;
#159 = CIRCLE ( 'NONE', #160, 5.250000000000000888 ) ;
#160 = AXIS2_PLACEMENT_3D ( 'NONE', #110, #167, #115 ) ;
#161 = PERSON_AND_ORGANIZATION ( #4, #14 ) ;
#162 = EDGE_CURVE ( 'NONE', #51, #42, #87, .T. ) ;
#163 = ORIENTED_EDGE ( 'NONE', *, *, #75, .T. ) ;
#164 = DIRECTION ( 'NONE',  ( 1.000000000000000000, 0.000000000000000000, 0.000000000000000000 ) ) ;
#165 = LINE ( 'NONE', #17, #193 ) ;
#166 = DIRECTION ( 'NONE',  ( 0.000000000000000000, 0.000000000000000000, 1.000000000000000000 ) ) ;
#167 = DIRECTION ( 'NONE',  ( 0.000000000000000000, 0.000000000000000000, 1.000000000000000000 ) ) ;
#168 = PRODUCT_DEFINITION ( 'NEZNÁMÝ', '', #197, #134 ) ;
#169 = PLANE ( 'NONE',  #150 ) ;
#170 = CARTESIAN_POINT ( 'NONE',  ( 0.000000000000000000, 0.000000000000000000, 5.000000000000000000 ) ) ;
#171 = PERSON_AND_ORGANIZATION ( #4, #14 ) ;
#172 = PRODUCT_DEFINITION_SHAPE ( 'NONE', 'NONE',  #168 ) ;
#173 = SHAPE_DEFINITION_REPRESENTATION ( #172, #45 ) ;
#174 = PERSON_AND_ORGANIZATION ( #4, #14 ) ;
#175 = ORIENTED_EDGE ( 'NONE', *, *, #162, .F. ) ;
#176 = CALENDAR_DATE ( 2023, 13, 2 ) ;
#177 = CIRCLE ( 'NONE', #96, 8.000000000000000000 ) ;
#178 = APPROVAL_PERSON_ORGANIZATION ( #161, #90, #236 ) ;
#179 = APPROVAL_STATUS ( 'not_yet_approved' ) ;
#180 = ORIENTED_EDGE ( 'NONE', *, *, #228, .T. ) ;
#181 = CC_DESIGN_APPROVAL ( #90, ( #197 ) ) ;
#182 = APPROVAL_STATUS ( 'not_yet_approved' ) ;
#183 = CARTESIAN_POINT ( 'NONE',  ( 0.000000000000000000, 0.000000000000000000, 500.0000000000000000 ) ) ;
#184 = DIRECTION ( 'NONE',  ( 1.000000000000000000, 0.000000000000000000, -0.000000000000000000 ) ) ;
#185 = SECURITY_CLASSIFICATION ( '', '', #60 ) ;
#186 = DIRECTION ( 'NONE',  ( -0.000000000000000000, -0.000000000000000000, -1.000000000000000000 ) ) ;
#187 = APPROVAL_ROLE ( '' ) ;
#188 = AXIS2_PLACEMENT_3D ( 'NONE', #102, #107, #164 ) ;
#189 = CC_DESIGN_APPROVAL ( #126, ( #168 ) ) ;
#190 = PERSON_AND_ORGANIZATION_ROLE ( 'design_owner' ) ;
#191 = DIRECTION ( 'NONE',  ( -1.000000000000000000, 0.000000000000000000, 0.000000000000000000 ) ) ;
#192 = EDGE_LOOP ( 'NONE', ( #155, #103 ) ) ;
#193 = VECTOR ( 'NONE', #100, 1000.000000000000000 ) ;
#194 = DIRECTION ( 'NONE',  ( -0.000000000000000000, -0.000000000000000000, -1.000000000000000000 ) ) ;
#195 = DIRECTION ( 'NONE',  ( 1.000000000000000000, 0.000000000000000000, 0.000000000000000000 ) ) ;
#196 = DIRECTION ( 'NONE',  ( -1.000000000000000000, 0.000000000000000000, 0.000000000000000000 ) ) ;
#197 = PRODUCT_DEFINITION_FORMATION_WITH_SPECIFIED_SOURCE ( 'LIBOVOLNÝ', '', #50, .NOT_KNOWN. ) ;
#198 = ORIENTED_EDGE ( 'NONE', *, *, #57, .F. ) ;
#199 = DIRECTION ( 'NONE',  ( 1.000000000000000000, 0.000000000000000000, -0.000000000000000000 ) ) ;
#200 = CARTESIAN_POINT ( 'NONE',  ( -8.000000000000000000, 0.000000000000000000, 0.000000000000000000 ) ) ;
#201 = ADVANCED_FACE ( 'NONE', ( #242, #23 ), #26, .T. ) ;
#202 = DIRECTION ( 'NONE',  ( -0.000000000000000000, -0.000000000000000000, -1.000000000000000000 ) ) ;
#203 = CALENDAR_DATE ( 2023, 13, 2 ) ;
#204 = PRODUCT_RELATED_PRODUCT_CATEGORY ( 'detail', '', ( #50 ) ) ;
#205 = ORIENTED_EDGE ( 'NONE', *, *, #94, .T. ) ;
#206 = APPROVAL_PERSON_ORGANIZATION ( #218, #79, #9 ) ;
#207 = DATE_AND_TIME ( #154, #147 ) ;
#208 = CC_DESIGN_PERSON_AND_ORGANIZATION_ASSIGNMENT ( #174, #190, ( #50 ) ) ;
#209 =( NAMED_UNIT ( * ) SI_UNIT ( $, .STERADIAN. ) SOLID_ANGLE_UNIT ( ) );
#210 = CYLINDRICAL_SURFACE ( 'NONE', #61, 5.250000000000000888 ) ;
#211 = ORIENTED_EDGE ( 'NONE', *, *, #94, .F. ) ;
#212 = PERSON_AND_ORGANIZATION ( #4, #14 ) ;
#213 = COORDINATED_UNIVERSAL_TIME_OFFSET ( 1, 0, .AHEAD. ) ;
#214 = CARTESIAN_POINT ( 'NONE',  ( 0.000000000000000000, 0.000000000000000000, 0.000000000000000000 ) ) ;
#215 = DATE_AND_TIME ( #176, #40 ) ;
#216 = CC_DESIGN_SECURITY_CLASSIFICATION ( #185, ( #197 ) ) ;
#217 = ORIENTED_EDGE ( 'NONE', *, *, #121, .T. ) ;
#218 = PERSON_AND_ORGANIZATION ( #4, #14 ) ;
#219 = DIRECTION ( 'NONE',  ( 0.000000000000000000, 0.000000000000000000, 1.000000000000000000 ) ) ;
#220 = LINE ( 'NONE', #128, #250 ) ;
#221 = AXIS2_PLACEMENT_3D ( 'NONE', #132, #245, #191 ) ;
#222 = AXIS2_PLACEMENT_3D ( 'NONE', #118, #130, #93 ) ;
#223 = DIRECTION ( 'NONE',  ( 0.000000000000000000, 0.000000000000000000, 1.000000000000000000 ) ) ;
#224 = DIRECTION ( 'NONE',  ( 1.000000000000000000, 0.000000000000000000, 0.000000000000000000 ) ) ;
#225 = CIRCLE ( 'NONE', #108, 8.000000000000000000 ) ;
#226 = MECHANICAL_CONTEXT ( 'NONE', #255, 'mechanical' ) ;
#227 = AXIS2_PLACEMENT_3D ( 'NONE', #1, #43, #196 ) ;
#228 = EDGE_CURVE ( 'NONE', #28, #145, #123, .T. ) ;
#229 = CIRCLE ( 'NONE', #24, 8.000000000000000000 ) ;
#230 = FACE_OUTER_BOUND ( 'NONE', #32, .T. ) ;
#231 = ORIENTED_EDGE ( 'NONE', *, *, #57, .T. ) ;
#232 = CARTESIAN_POINT ( 'NONE',  ( 0.000000000000000000, 0.000000000000000000, 500.0000000000000000 ) ) ;
#233 = DIRECTION ( 'NONE',  ( 0.000000000000000000, 0.000000000000000000, 1.000000000000000000 ) ) ;
#234 = AXIS2_PLACEMENT_3D ( 'NONE', #183, #65, #146 ) ;
#235 = CARTESIAN_POINT ( 'NONE',  ( 0.000000000000000000, 0.000000000000000000, 0.000000000000000000 ) ) ;
#236 = APPROVAL_ROLE ( '' ) ;
#237 = ORIENTED_EDGE ( 'NONE', *, *, #37, .T. ) ;
#238 = AXIS2_PLACEMENT_3D ( 'NONE', #235, #219, #199 ) ;
#239 = CARTESIAN_POINT ( 'NONE',  ( 8.000000000000000000, 9.797174393178825657E-16, 0.000000000000000000 ) ) ;
#240 = ADVANCED_FACE ( 'NONE', ( #230 ), #78, .T. ) ;
#241 = CARTESIAN_POINT ( 'NONE',  ( -5.250000000000000888, 0.000000000000000000, 500.0000000000000000 ) ) ;
#242 = FACE_BOUND ( 'NONE', #192, .T. ) ;
#243 = VECTOR ( 'NONE', #148, 1000.000000000000000 ) ;
#244 = COORDINATED_UNIVERSAL_TIME_OFFSET ( 1, 0, .AHEAD. ) ;
#245 = DIRECTION ( 'NONE',  ( -0.000000000000000000, -0.000000000000000000, -1.000000000000000000 ) ) ;
#246 = CARTESIAN_POINT ( 'NONE',  ( 5.250000000000000888, 6.429395695523605139E-16, 500.0000000000000000 ) ) ;
#247 = EDGE_LOOP ( 'NONE', ( #122, #217 ) ) ;
#248 = CC_DESIGN_PERSON_AND_ORGANIZATION_ASSIGNMENT ( #212, #85, ( #168 ) ) ;
#249 = APPROVAL_DATE_TIME ( #215, #90 ) ;
#250 = VECTOR ( 'NONE', #186, 1000.000000000000000 ) ;
#251 = FACE_OUTER_BOUND ( 'NONE', #11, .T. ) ;
#252 = ADVANCED_FACE ( 'NONE', ( #74 ), #80, .T. ) ;
#253 = DIRECTION ( 'NONE',  ( 1.000000000000000000, 0.000000000000000000, 0.000000000000000000 ) ) ;
#254 = VERTEX_POINT ( 'NONE', #246 ) ;
#255 = APPLICATION_CONTEXT ( 'configuration controlled 3d designs of mechanical parts and assemblies' ) ;
ENDSEC;
END-ISO-10303-21;
