ISO-10303-21;
HEADER;
FILE_DESCRIPTION (( 'STEP AP203' ),
    '1' );
FILE_NAME ('6612.STEP',
    '2023-02-13T15:36:57',
    ( '' ),
    ( '' ),
    'SwSTEP 2.0',
    'SolidWorks 2019',
    '' );
FILE_SCHEMA (( 'CONFIG_CONTROL_DESIGN' ));
ENDSEC;

DATA;
#1 = PERSON_AND_ORGANIZATION ( #131, #150 ) ;
#2 = VERTEX_POINT ( 'NONE', #97 ) ;
#3 = APPROVAL ( #61, 'NEURÈENÝ' ) ;
#4 = EDGE_CURVE ( 'NONE', #151, #238, #240, .T. ) ;
#5 = DATE_TIME_ROLE ( 'creation_date' ) ;
#6 = ORIENTED_EDGE ( 'NONE', *, *, #161, .T. ) ;
#7 = ORIENTED_EDGE ( 'NONE', *, *, #192, .T. ) ;
#8 = APPROVAL_ROLE ( '' ) ;
#9 = FACE_OUTER_BOUND ( 'NONE', #90, .T. ) ;
#10 = CC_DESIGN_APPROVAL ( #43, ( #37 ) ) ;
#11 = CARTESIAN_POINT ( 'NONE',  ( 0.000000000000000000, 0.000000000000000000, 400.0000000000000000 ) ) ;
#12 = COORDINATED_UNIVERSAL_TIME_OFFSET ( 1, 0, .AHEAD. ) ;
#13 = LINE ( 'NONE', #28, #190 ) ;
#14 = APPROVAL_DATE_TIME ( #122, #3 ) ;
#15 = FACE_OUTER_BOUND ( 'NONE', #73, .T. ) ;
#16 = DIRECTION ( 'NONE',  ( -1.000000000000000000, 0.000000000000000000, 0.000000000000000000 ) ) ;
#17 = ORIENTED_EDGE ( 'NONE', *, *, #4, .T. ) ;
#18 = APPROVAL ( #237, 'NEURÈENÝ' ) ;
#19 = AXIS2_PLACEMENT_3D ( 'NONE', #85, #47, #99 ) ;
#20 = ORIENTED_EDGE ( 'NONE', *, *, #154, .F. ) ;
#21 = DIRECTION ( 'NONE',  ( 0.000000000000000000, 0.000000000000000000, 1.000000000000000000 ) ) ;
#22 = APPROVAL_DATE_TIME ( #93, #43 ) ;
#23 = ORIENTED_EDGE ( 'NONE', *, *, #145, .T. ) ;
#24 = APPROVAL_DATE_TIME ( #199, #18 ) ;
#25 = CARTESIAN_POINT ( 'NONE',  ( 3.000000000000000444, 3.673940397442060361E-16, 3.000000000000000000 ) ) ;
#26 = VECTOR ( 'NONE', #251, 1000.000000000000000 ) ;
#27 = CC_DESIGN_PERSON_AND_ORGANIZATION_ASSIGNMENT ( #39, #174, ( #212 ) ) ;
#28 = CARTESIAN_POINT ( 'NONE',  ( -3.000000000000000444, 0.000000000000000000, 3.000000000000000000 ) ) ;
#29 = EDGE_CURVE ( 'NONE', #156, #151, #13, .T. ) ;
#30 = CARTESIAN_POINT ( 'NONE',  ( 0.000000000000000000, 0.000000000000000000, 3.000000000000000000 ) ) ;
#31 = CIRCLE ( 'NONE', #59, 1.500000000000000222 ) ;
#32 = DIRECTION ( 'NONE',  ( 1.000000000000000000, 0.000000000000000000, 0.000000000000000000 ) ) ;
#33 = CIRCLE ( 'NONE', #173, 3.000000000000000444 ) ;
#34 = DIRECTION ( 'NONE',  ( 1.000000000000000000, 0.000000000000000000, 0.000000000000000000 ) ) ;
#35 = CC_DESIGN_PERSON_AND_ORGANIZATION_ASSIGNMENT ( #100, #165, ( #127 ) ) ;
#36 = CARTESIAN_POINT ( 'NONE',  ( -1.500000000000000222, 0.000000000000000000, 400.0000000000000000 ) ) ;
#37 = PRODUCT_DEFINITION ( 'NEZNÁMÝ', '', #127, #187 ) ;
#38 = ORIENTED_EDGE ( 'NONE', *, *, #166, .T. ) ;
#39 = PERSON_AND_ORGANIZATION ( #131, #150 ) ;
#40 = ORIENTED_EDGE ( 'NONE', *, *, #86, .T. ) ;
#41 = EDGE_LOOP ( 'NONE', ( #157, #94 ) ) ;
#42 = CARTESIAN_POINT ( 'NONE',  ( 0.000000000000000000, 0.000000000000000000, 0.000000000000000000 ) ) ;
#43 = APPROVAL ( #72, 'NEURÈENÝ' ) ;
#44 = DIRECTION ( 'NONE',  ( 1.000000000000000000, 0.000000000000000000, 0.000000000000000000 ) ) ;
#45 = CARTESIAN_POINT ( 'NONE',  ( 0.000000000000000000, 0.000000000000000000, 3.000000000000000000 ) ) ;
#46 = SECURITY_CLASSIFICATION_LEVEL ( 'unclassified' ) ;
#47 = DIRECTION ( 'NONE',  ( 0.000000000000000000, 0.000000000000000000, 1.000000000000000000 ) ) ;
#48 = DIRECTION ( 'NONE',  ( 0.000000000000000000, 0.000000000000000000, 1.000000000000000000 ) ) ;
#49 = CARTESIAN_POINT ( 'NONE',  ( -3.000000000000000444, 0.000000000000000000, 3.000000000000000000 ) ) ;
#50 = APPLICATION_PROTOCOL_DEFINITION ( 'international standard', 'config_control_design', 1994, #155 ) ;
#51 = DIRECTION ( 'NONE',  ( 0.000000000000000000, 0.000000000000000000, 1.000000000000000000 ) ) ;
#52 = CC_DESIGN_APPROVAL ( #18, ( #127 ) ) ;
#53 = CC_DESIGN_DATE_AND_TIME_ASSIGNMENT ( #181, #183, ( #243 ) ) ;
#54 = EDGE_LOOP ( 'NONE', ( #160, #211 ) ) ;
#55 = CLOSED_SHELL ( 'NONE', ( #76, #57, #116, #70, #228, #80, #96 ) ) ;
#56 = CIRCLE ( 'NONE', #255, 1.500000000000000222 ) ;
#57 = ADVANCED_FACE ( 'NONE', ( #106 ), #121, .T. ) ;
#58 = APPROVAL_ROLE ( '' ) ;
#59 = AXIS2_PLACEMENT_3D ( 'NONE', #205, #123, #44 ) ;
#60 = AXIS2_PLACEMENT_3D ( 'NONE', #42, #21, #74 ) ;
#61 = APPROVAL_STATUS ( 'not_yet_approved' ) ;
#62 = CARTESIAN_POINT ( 'NONE',  ( 0.000000000000000000, 0.000000000000000000, 3.000000000000000000 ) ) ;
#63 = CARTESIAN_POINT ( 'NONE',  ( 0.000000000000000000, 0.000000000000000000, 400.0000000000000000 ) ) ;
#64 = FACE_OUTER_BOUND ( 'NONE', #234, .T. ) ;
#65 = CARTESIAN_POINT ( 'NONE',  ( 0.000000000000000000, 0.000000000000000000, 3.000000000000000000 ) ) ;
#66 = EDGE_CURVE ( 'NONE', #107, #229, #153, .T. ) ;
#67 =( NAMED_UNIT ( * ) SI_UNIT ( $, .STERADIAN. ) SOLID_ANGLE_UNIT ( ) );
#68 = ORIENTED_EDGE ( 'NONE', *, *, #145, .F. ) ;
#69 = CARTESIAN_POINT ( 'NONE',  ( 3.000000000000000444, 3.673940397442060361E-16, 0.000000000000000000 ) ) ;
#70 = ADVANCED_FACE ( 'NONE', ( #219, #101 ), #217, .T. ) ;
#71 =( GEOMETRIC_REPRESENTATION_CONTEXT ( 3 ) GLOBAL_UNCERTAINTY_ASSIGNED_CONTEXT ( ( #170 ) ) GLOBAL_UNIT_ASSIGNED_CONTEXT ( ( #152, #208, #67 ) ) REPRESENTATION_CONTEXT ( 'NONE', 'WORKASPACE' ) );
#72 = APPROVAL_STATUS ( 'not_yet_approved' ) ;
#73 = EDGE_LOOP ( 'NONE', ( #230, #195, #210, #6 ) ) ;
#74 = DIRECTION ( 'NONE',  ( 1.000000000000000000, 0.000000000000000000, 0.000000000000000000 ) ) ;
#75 = PERSON_AND_ORGANIZATION ( #131, #150 ) ;
#76 = ADVANCED_FACE ( 'NONE', ( #144 ), #118, .T. ) ;
#77 = PRODUCT_RELATED_PRODUCT_CATEGORY ( 'detail', '', ( #212 ) ) ;
#78 = DIRECTION ( 'NONE',  ( 0.000000000000000000, 0.000000000000000000, 1.000000000000000000 ) ) ;
#79 = CARTESIAN_POINT ( 'NONE',  ( 0.000000000000000000, 0.000000000000000000, 400.0000000000000000 ) ) ;
#80 = ADVANCED_FACE ( 'NONE', ( #15 ), #81, .T. ) ;
#81 = CYLINDRICAL_SURFACE ( 'NONE', #171, 1.500000000000000222 ) ;
#82 = PERSON_AND_ORGANIZATION ( #131, #150 ) ;
#83 = DIRECTION ( 'NONE',  ( -0.000000000000000000, -0.000000000000000000, -1.000000000000000000 ) ) ;
#84 = APPROVAL_PERSON_ORGANIZATION ( #82, #3, #8 ) ;
#85 = CARTESIAN_POINT ( 'NONE',  ( 0.000000000000000000, 0.000000000000000000, 3.000000000000000000 ) ) ;
#86 = EDGE_CURVE ( 'NONE', #229, #107, #31, .T. ) ;
#87 = FACE_OUTER_BOUND ( 'NONE', #227, .T. ) ;
#88 = AXIS2_PLACEMENT_3D ( 'NONE', #79, #168, #223 ) ;
#89 = LINE ( 'NONE', #233, #140 ) ;
#90 = EDGE_LOOP ( 'NONE', ( #40, #177 ) ) ;
#91 = EDGE_LOOP ( 'NONE', ( #137, #23, #7, #129 ) ) ;
#92 = MANIFOLD_SOLID_BREP ( 'Pøidat vysunutím3', #55 ) ;
#93 = DATE_AND_TIME ( #138, #198 ) ;
#94 = ORIENTED_EDGE ( 'NONE', *, *, #119, .F. ) ;
#95 = CALENDAR_DATE ( 2023, 13, 2 ) ;
#96 = ADVANCED_FACE ( 'NONE', ( #9 ), #162, .T. ) ;
#97 = CARTESIAN_POINT ( 'NONE',  ( 1.500000000000000222, 1.836970198721030181E-16, 3.000000000000000000 ) ) ;
#98 = LINE ( 'NONE', #182, #26 ) ;
#99 = DIRECTION ( 'NONE',  ( 1.000000000000000000, 0.000000000000000000, -0.000000000000000000 ) ) ;
#100 = PERSON_AND_ORGANIZATION ( #131, #150 ) ;
#101 = FACE_OUTER_BOUND ( 'NONE', #54, .T. ) ;
#102 = AXIS2_PLACEMENT_3D ( 'NONE', #186, #78, #184 ) ;
#103 = PERSON_AND_ORGANIZATION_ROLE ( 'classification_officer' ) ;
#104 = CARTESIAN_POINT ( 'NONE',  ( -3.000000000000000444, 0.000000000000000000, 0.000000000000000000 ) ) ;
#105 = APPROVAL_PERSON_ORGANIZATION ( #159, #18, #58 ) ;
#106 = FACE_OUTER_BOUND ( 'NONE', #91, .T. ) ;
#107 = VERTEX_POINT ( 'NONE', #249 ) ;
#108 = DIRECTION ( 'NONE',  ( -0.000000000000000000, -0.000000000000000000, -1.000000000000000000 ) ) ;
#109 = ORIENTED_EDGE ( 'NONE', *, *, #236, .F. ) ;
#110 = CARTESIAN_POINT ( 'NONE',  ( -1.500000000000000222, 0.000000000000000000, 400.0000000000000000 ) ) ;
#111 = AXIS2_PLACEMENT_3D ( 'NONE', #65, #146, #16 ) ;
#112 = ORIENTED_EDGE ( 'NONE', *, *, #119, .T. ) ;
#113 = ADVANCED_BREP_SHAPE_REPRESENTATION ( '6612', ( #92, #60 ), #71 ) ;
#114 = PERSON_AND_ORGANIZATION_ROLE ( 'creator' ) ;
#115 = VERTEX_POINT ( 'NONE', #25 ) ;
#116 = ADVANCED_FACE ( 'NONE', ( #64 ), #188, .T. ) ;
#117 = CALENDAR_DATE ( 2023, 13, 2 ) ;
#118 = CYLINDRICAL_SURFACE ( 'NONE', #139, 1.500000000000000222 ) ;
#119 = EDGE_CURVE ( 'NONE', #2, #197, #225, .T. ) ;
#120 = CC_DESIGN_APPROVAL ( #3, ( #243 ) ) ;
#121 = CYLINDRICAL_SURFACE ( 'NONE', #254, 3.000000000000000444 ) ;
#122 = DATE_AND_TIME ( #185, #209 ) ;
#123 = DIRECTION ( 'NONE',  ( 0.000000000000000000, 0.000000000000000000, 1.000000000000000000 ) ) ;
#124 = CARTESIAN_POINT ( 'NONE',  ( 0.000000000000000000, 0.000000000000000000, 0.000000000000000000 ) ) ;
#125 = EDGE_CURVE ( 'NONE', #115, #156, #136, .T. ) ;
#126 = DIRECTION ( 'NONE',  ( 1.000000000000000000, 0.000000000000000000, 0.000000000000000000 ) ) ;
#127 = PRODUCT_DEFINITION_FORMATION_WITH_SPECIFIED_SOURCE ( 'LIBOVOLNÝ', '', #212, .NOT_KNOWN. ) ;
#128 = LINE ( 'NONE', #110, #242 ) ;
#129 = ORIENTED_EDGE ( 'NONE', *, *, #29, .F. ) ;
#130 = DIRECTION ( 'NONE',  ( 1.000000000000000000, 0.000000000000000000, -0.000000000000000000 ) ) ;
#131 = PERSON ( 'NEURÈENÝ', 'NEURÈENÝ', 'NEURÈENÝ', ('NEURÈENÝ'), ('NEURÈENÝ'), ('NEURÈENÝ') ) ;
#132 = LOCAL_TIME ( 16, 36, 57.00000000000000000, #222 ) ;
#133 = DIRECTION ( 'NONE',  ( 1.000000000000000000, 0.000000000000000000, 0.000000000000000000 ) ) ;
#134 = ORIENTED_EDGE ( 'NONE', *, *, #66, .F. ) ;
#135 = APPROVAL_ROLE ( '' ) ;
#136 = CIRCLE ( 'NONE', #231, 3.000000000000000444 ) ;
#137 = ORIENTED_EDGE ( 'NONE', *, *, #125, .F. ) ;
#138 = CALENDAR_DATE ( 2023, 13, 2 ) ;
#139 = AXIS2_PLACEMENT_3D ( 'NONE', #63, #201, #167 ) ;
#140 = VECTOR ( 'NONE', #108, 1000.000000000000000 ) ;
#141 = ORIENTED_EDGE ( 'NONE', *, *, #4, .F. ) ;
#142 = DIRECTION ( 'NONE',  ( 0.000000000000000000, 0.000000000000000000, 1.000000000000000000 ) ) ;
#143 = DIRECTION ( 'NONE',  ( 0.000000000000000000, 0.000000000000000000, 1.000000000000000000 ) ) ;
#144 = FACE_OUTER_BOUND ( 'NONE', #180, .T. ) ;
#145 = EDGE_CURVE ( 'NONE', #115, #238, #98, .T. ) ;
#146 = DIRECTION ( 'NONE',  ( -0.000000000000000000, -0.000000000000000000, -1.000000000000000000 ) ) ;
#147 = CC_DESIGN_PERSON_AND_ORGANIZATION_ASSIGNMENT ( #204, #103, ( #243 ) ) ;
#148 = CARTESIAN_POINT ( 'NONE',  ( 0.000000000000000000, 0.000000000000000000, 3.000000000000000000 ) ) ;
#149 = AXIS2_PLACEMENT_3D ( 'NONE', #45, #244, #126 ) ;
#150 = ORGANIZATION ( 'NEURÈENÝ', 'NEURÈENÝ', '' ) ;
#151 = VERTEX_POINT ( 'NONE', #104 ) ;
#152 =( LENGTH_UNIT ( ) NAMED_UNIT ( * ) SI_UNIT ( .MILLI., .METRE. ) );
#153 = CIRCLE ( 'NONE', #102, 1.500000000000000222 ) ;
#154 = EDGE_CURVE ( 'NONE', #156, #115, #158, .T. ) ;
#155 = APPLICATION_CONTEXT ( 'configuration controlled 3d designs of mechanical parts and assemblies' ) ;
#156 = VERTEX_POINT ( 'NONE', #49 ) ;
#157 = ORIENTED_EDGE ( 'NONE', *, *, #161, .F. ) ;
#158 = CIRCLE ( 'NONE', #215, 3.000000000000000444 ) ;
#159 = PERSON_AND_ORGANIZATION ( #131, #150 ) ;
#160 = ORIENTED_EDGE ( 'NONE', *, *, #154, .T. ) ;
#161 = EDGE_CURVE ( 'NONE', #197, #2, #56, .T. ) ;
#162 = PLANE ( 'NONE',  #88 ) ;
#163 = PERSON_AND_ORGANIZATION_ROLE ( 'design_supplier' ) ;
#164 = DIRECTION ( 'NONE',  ( -0.000000000000000000, -0.000000000000000000, -1.000000000000000000 ) ) ;
#165 = PERSON_AND_ORGANIZATION_ROLE ( 'creator' ) ;
#166 = EDGE_CURVE ( 'NONE', #107, #2, #89, .T. ) ;
#167 = DIRECTION ( 'NONE',  ( -1.000000000000000000, 0.000000000000000000, 0.000000000000000000 ) ) ;
#168 = DIRECTION ( 'NONE',  ( 0.000000000000000000, 0.000000000000000000, 1.000000000000000000 ) ) ;
#169 = CARTESIAN_POINT ( 'NONE',  ( 0.000000000000000000, 0.000000000000000000, 3.000000000000000000 ) ) ;
#170 = UNCERTAINTY_MEASURE_WITH_UNIT (LENGTH_MEASURE( 1.000000000000000082E-05 ), #152, 'distance_accuracy_value', 'NONE');
#171 = AXIS2_PLACEMENT_3D ( 'NONE', #11, #83, #220 ) ;
#172 = CC_DESIGN_PERSON_AND_ORGANIZATION_ASSIGNMENT ( #75, #114, ( #37 ) ) ;
#173 = AXIS2_PLACEMENT_3D ( 'NONE', #189, #191, #133 ) ;
#174 = PERSON_AND_ORGANIZATION_ROLE ( 'design_owner' ) ;
#175 = COORDINATED_UNIVERSAL_TIME_OFFSET ( 1, 0, .AHEAD. ) ;
#176 = AXIS2_PLACEMENT_3D ( 'NONE', #124, #142, #34 ) ;
#177 = ORIENTED_EDGE ( 'NONE', *, *, #66, .T. ) ;
#178 = PRODUCT_DEFINITION_SHAPE ( 'NONE', 'NONE',  #37 ) ;
#179 = DATE_AND_TIME ( #95, #248 ) ;
#180 = EDGE_LOOP ( 'NONE', ( #134, #38, #112, #109 ) ) ;
#181 = DATE_AND_TIME ( #245, #132 ) ;
#182 = CARTESIAN_POINT ( 'NONE',  ( 3.000000000000000444, 3.673940397442060361E-16, 3.000000000000000000 ) ) ;
#183 = DATE_TIME_ROLE ( 'classification_date' ) ;
#184 = DIRECTION ( 'NONE',  ( 1.000000000000000000, 0.000000000000000000, 0.000000000000000000 ) ) ;
#185 = CALENDAR_DATE ( 2023, 13, 2 ) ;
#186 = CARTESIAN_POINT ( 'NONE',  ( 0.000000000000000000, 0.000000000000000000, 400.0000000000000000 ) ) ;
#187 = DESIGN_CONTEXT ( 'detailed design', #250, 'design' ) ;
#188 = CYLINDRICAL_SURFACE ( 'NONE', #111, 3.000000000000000444 ) ;
#189 = CARTESIAN_POINT ( 'NONE',  ( 0.000000000000000000, 0.000000000000000000, 0.000000000000000000 ) ) ;
#190 = VECTOR ( 'NONE', #203, 1000.000000000000000 ) ;
#191 = DIRECTION ( 'NONE',  ( 0.000000000000000000, 0.000000000000000000, 1.000000000000000000 ) ) ;
#192 = EDGE_CURVE ( 'NONE', #238, #151, #33, .T. ) ;
#193 = DIRECTION ( 'NONE',  ( 1.000000000000000000, 0.000000000000000000, 0.000000000000000000 ) ) ;
#194 = DIRECTION ( 'NONE',  ( -0.000000000000000000, -0.000000000000000000, -1.000000000000000000 ) ) ;
#195 = ORIENTED_EDGE ( 'NONE', *, *, #86, .F. ) ;
#196 = MECHANICAL_CONTEXT ( 'NONE', #155, 'mechanical' ) ;
#197 = VERTEX_POINT ( 'NONE', #252 ) ;
#198 = LOCAL_TIME ( 16, 36, 57.00000000000000000, #213 ) ;
#199 = DATE_AND_TIME ( #117, #232 ) ;
#200 = ORIENTED_EDGE ( 'NONE', *, *, #192, .F. ) ;
#201 = DIRECTION ( 'NONE',  ( -0.000000000000000000, -0.000000000000000000, -1.000000000000000000 ) ) ;
#202 = DIRECTION ( 'NONE',  ( -1.000000000000000000, 0.000000000000000000, 0.000000000000000000 ) ) ;
#203 = DIRECTION ( 'NONE',  ( -0.000000000000000000, -0.000000000000000000, -1.000000000000000000 ) ) ;
#204 = PERSON_AND_ORGANIZATION ( #131, #150 ) ;
#205 = CARTESIAN_POINT ( 'NONE',  ( 0.000000000000000000, 0.000000000000000000, 400.0000000000000000 ) ) ;
#206 = AXIS2_PLACEMENT_3D ( 'NONE', #253, #51, #130 ) ;
#207 = CC_DESIGN_SECURITY_CLASSIFICATION ( #243, ( #127 ) ) ;
#208 =( NAMED_UNIT ( * ) PLANE_ANGLE_UNIT ( ) SI_UNIT ( $, .RADIAN. ) );
#209 = LOCAL_TIME ( 16, 36, 57.00000000000000000, #12 ) ;
#210 = ORIENTED_EDGE ( 'NONE', *, *, #236, .T. ) ;
#211 = ORIENTED_EDGE ( 'NONE', *, *, #125, .T. ) ;
#212 = PRODUCT ( '6612', '6612', '', ( #196 ) ) ;
#213 = COORDINATED_UNIVERSAL_TIME_OFFSET ( 1, 0, .AHEAD. ) ;
#214 = COORDINATED_UNIVERSAL_TIME_OFFSET ( 1, 0, .AHEAD. ) ;
#215 = AXIS2_PLACEMENT_3D ( 'NONE', #148, #246, #224 ) ;
#216 = APPROVAL_PERSON_ORGANIZATION ( #1, #43, #135 ) ;
#217 = PLANE ( 'NONE',  #19 ) ;
#218 = PERSON_AND_ORGANIZATION ( #131, #150 ) ;
#219 = FACE_BOUND ( 'NONE', #41, .T. ) ;
#220 = DIRECTION ( 'NONE',  ( -1.000000000000000000, 0.000000000000000000, 0.000000000000000000 ) ) ;
#221 = CC_DESIGN_PERSON_AND_ORGANIZATION_ASSIGNMENT ( #218, #163, ( #127 ) ) ;
#222 = COORDINATED_UNIVERSAL_TIME_OFFSET ( 1, 0, .AHEAD. ) ;
#223 = DIRECTION ( 'NONE',  ( 1.000000000000000000, 0.000000000000000000, -0.000000000000000000 ) ) ;
#224 = DIRECTION ( 'NONE',  ( 1.000000000000000000, 0.000000000000000000, 0.000000000000000000 ) ) ;
#225 = CIRCLE ( 'NONE', #149, 1.500000000000000222 ) ;
#226 = PLANE ( 'NONE',  #206 ) ;
#227 = EDGE_LOOP ( 'NONE', ( #141, #200 ) ) ;
#228 = ADVANCED_FACE ( 'NONE', ( #87 ), #226, .F. ) ;
#229 = VERTEX_POINT ( 'NONE', #36 ) ;
#230 = ORIENTED_EDGE ( 'NONE', *, *, #166, .F. ) ;
#231 = AXIS2_PLACEMENT_3D ( 'NONE', #169, #48, #32 ) ;
#232 = LOCAL_TIME ( 16, 36, 57.00000000000000000, #214 ) ;
#233 = CARTESIAN_POINT ( 'NONE',  ( 1.500000000000000222, 1.836970198721030181E-16, 400.0000000000000000 ) ) ;
#234 = EDGE_LOOP ( 'NONE', ( #68, #20, #241, #17 ) ) ;
#235 = APPLICATION_PROTOCOL_DEFINITION ( 'international standard', 'config_control_design', 1994, #250 ) ;
#236 = EDGE_CURVE ( 'NONE', #229, #197, #128, .T. ) ;
#237 = APPROVAL_STATUS ( 'not_yet_approved' ) ;
#238 = VERTEX_POINT ( 'NONE', #69 ) ;
#239 = CC_DESIGN_DATE_AND_TIME_ASSIGNMENT ( #179, #5, ( #37 ) ) ;
#240 = CIRCLE ( 'NONE', #176, 3.000000000000000444 ) ;
#241 = ORIENTED_EDGE ( 'NONE', *, *, #29, .T. ) ;
#242 = VECTOR ( 'NONE', #194, 1000.000000000000000 ) ;
#243 = SECURITY_CLASSIFICATION ( '', '', #46 ) ;
#244 = DIRECTION ( 'NONE',  ( 0.000000000000000000, 0.000000000000000000, 1.000000000000000000 ) ) ;
#245 = CALENDAR_DATE ( 2023, 13, 2 ) ;
#246 = DIRECTION ( 'NONE',  ( 0.000000000000000000, 0.000000000000000000, 1.000000000000000000 ) ) ;
#247 = SHAPE_DEFINITION_REPRESENTATION ( #178, #113 ) ;
#248 = LOCAL_TIME ( 16, 36, 57.00000000000000000, #175 ) ;
#249 = CARTESIAN_POINT ( 'NONE',  ( 1.500000000000000222, 1.836970198721030181E-16, 400.0000000000000000 ) ) ;
#250 = APPLICATION_CONTEXT ( 'configuration controlled 3d designs of mechanical parts and assemblies' ) ;
#251 = DIRECTION ( 'NONE',  ( -0.000000000000000000, -0.000000000000000000, -1.000000000000000000 ) ) ;
#252 = CARTESIAN_POINT ( 'NONE',  ( -1.500000000000000222, 0.000000000000000000, 3.000000000000000000 ) ) ;
#253 = CARTESIAN_POINT ( 'NONE',  ( 0.000000000000000000, 0.000000000000000000, 0.000000000000000000 ) ) ;
#254 = AXIS2_PLACEMENT_3D ( 'NONE', #30, #164, #202 ) ;
#255 = AXIS2_PLACEMENT_3D ( 'NONE', #62, #143, #193 ) ;
ENDSEC;
END-ISO-10303-21;
