ISO-10303-21;
HEADER;
FILE_DESCRIPTION (( 'STEP AP203' ),
    '1' );
FILE_NAME ('7a9b.STEP',
    '2023-01-31T14:32:46',
    ( '' ),
    ( '' ),
    'SwSTEP 2.0',
    'SolidWorks 2019',
    '' );
FILE_SCHEMA (( 'CONFIG_CONTROL_DESIGN' ));
ENDSEC;

DATA;
#1 = DIRECTION ( 'NONE',  ( -1.000000000000000000, 0.000000000000000000, 0.000000000000000000 ) ) ;
#2 = ORIENTED_EDGE ( 'NONE', *, *, #122, .F. ) ;
#3 = LOCAL_TIME ( 15, 32, 46.00000000000000000, #186 ) ;
#4 = ORIENTED_EDGE ( 'NONE', *, *, #25, .F. ) ;
#5 = PERSON_AND_ORGANIZATION ( #45, #49 ) ;
#6 = DATE_TIME_ROLE ( 'classification_date' ) ;
#7 = PLANE ( 'NONE',  #111 ) ;
#8 = APPLICATION_CONTEXT ( 'configuration controlled 3d designs of mechanical parts and assemblies' ) ;
#9 = CIRCLE ( 'NONE', #56, 0.5000000000000000000 ) ;
#10 = ADVANCED_BREP_SHAPE_REPRESENTATION ( '7a9b', ( #22, #232 ), #202 ) ;
#11 = DIRECTION ( 'NONE',  ( -0.000000000000000000, -0.000000000000000000, -1.000000000000000000 ) ) ;
#12 = CALENDAR_DATE ( 2023, 31, 1 ) ;
#13 = ORIENTED_EDGE ( 'NONE', *, *, #213, .T. ) ;
#14 = ADVANCED_FACE ( 'NONE', ( #219 ), #77, .T. ) ;
#15 = CARTESIAN_POINT ( 'NONE',  ( 0.5000000000000000000, 6.123233995736766036E-17, 100.0000000000000000 ) ) ;
#16 = CIRCLE ( 'NONE', #99, 0.5000000000000000000 ) ;
#17 = ORIENTED_EDGE ( 'NONE', *, *, #71, .T. ) ;
#18 = EDGE_CURVE ( 'NONE', #159, #115, #48, .T. ) ;
#19 = EDGE_LOOP ( 'NONE', ( #150, #30 ) ) ;
#20 = DIRECTION ( 'NONE',  ( 0.000000000000000000, 0.000000000000000000, 1.000000000000000000 ) ) ;
#21 = LOCAL_TIME ( 15, 32, 46.00000000000000000, #144 ) ;
#22 = MANIFOLD_SOLID_BREP ( 'Pøidat vysunutím3', #162 ) ;
#23 = APPLICATION_PROTOCOL_DEFINITION ( 'international standard', 'config_control_design', 1994, #8 ) ;
#24 = CIRCLE ( 'NONE', #120, 1.250000000000000000 ) ;
#25 = EDGE_CURVE ( 'NONE', #79, #184, #85, .T. ) ;
#26 = MECHANICAL_CONTEXT ( 'NONE', #8, 'mechanical' ) ;
#27 = CALENDAR_DATE ( 2023, 31, 1 ) ;
#28 = DIRECTION ( 'NONE',  ( 1.000000000000000000, 0.000000000000000000, 0.000000000000000000 ) ) ;
#29 = PRODUCT_DEFINITION_FORMATION_WITH_SPECIFIED_SOURCE ( 'LIBOVOLNÝ', '', #220, .NOT_KNOWN. ) ;
#30 = ORIENTED_EDGE ( 'NONE', *, *, #46, .F. ) ;
#31 = DIRECTION ( 'NONE',  ( 0.000000000000000000, 0.000000000000000000, 1.000000000000000000 ) ) ;
#32 = DIRECTION ( 'NONE',  ( 1.000000000000000000, 0.000000000000000000, 0.000000000000000000 ) ) ;
#33 = APPROVAL ( #93, 'NEURÈENÝ' ) ;
#34 = VECTOR ( 'NONE', #113, 1000.000000000000000 ) ;
#35 = APPROVAL_ROLE ( '' ) ;
#36 = DIRECTION ( 'NONE',  ( 1.000000000000000000, 0.000000000000000000, 0.000000000000000000 ) ) ;
#37 = EDGE_LOOP ( 'NONE', ( #135, #152, #97, #80 ) ) ;
#38 = DIRECTION ( 'NONE',  ( -0.000000000000000000, -0.000000000000000000, -1.000000000000000000 ) ) ;
#39 = CC_DESIGN_APPROVAL ( #127, ( #29 ) ) ;
#40 = DIRECTION ( 'NONE',  ( -0.000000000000000000, -0.000000000000000000, -1.000000000000000000 ) ) ;
#41 = DIRECTION ( 'NONE',  ( -1.000000000000000000, 0.000000000000000000, 0.000000000000000000 ) ) ;
#42 = LINE ( 'NONE', #73, #34 ) ;
#43 = CARTESIAN_POINT ( 'NONE',  ( 0.000000000000000000, 0.000000000000000000, 1.199999999999999956 ) ) ;
#44 = CC_DESIGN_SECURITY_CLASSIFICATION ( #74, ( #29 ) ) ;
#45 = PERSON ( 'NEURÈENÝ', 'NEURÈENÝ', 'NEURÈENÝ', ('NEURÈENÝ'), ('NEURÈENÝ'), ('NEURÈENÝ') ) ;
#46 = EDGE_CURVE ( 'NONE', #217, #129, #87, .T. ) ;
#47 = DIRECTION ( 'NONE',  ( 0.000000000000000000, 0.000000000000000000, 1.000000000000000000 ) ) ;
#48 = CIRCLE ( 'NONE', #198, 0.5000000000000000000 ) ;
#49 = ORGANIZATION ( 'NEURÈENÝ', 'NEURÈENÝ', '' ) ;
#50 = DATE_AND_TIME ( #90, #3 ) ;
#51 = PERSON_AND_ORGANIZATION ( #45, #49 ) ;
#52 = AXIS2_PLACEMENT_3D ( 'NONE', #43, #161, #227 ) ;
#53 = PERSON_AND_ORGANIZATION ( #45, #49 ) ;
#54 = FACE_OUTER_BOUND ( 'NONE', #234, .T. ) ;
#55 = COORDINATED_UNIVERSAL_TIME_OFFSET ( 1, 0, .AHEAD. ) ;
#56 = AXIS2_PLACEMENT_3D ( 'NONE', #84, #164, #28 ) ;
#57 = DIRECTION ( 'NONE',  ( -1.000000000000000000, 0.000000000000000000, 0.000000000000000000 ) ) ;
#58 = AXIS2_PLACEMENT_3D ( 'NONE', #216, #178, #242 ) ;
#59 = DIRECTION ( 'NONE',  ( 1.000000000000000000, 0.000000000000000000, 0.000000000000000000 ) ) ;
#60 = APPLICATION_CONTEXT ( 'configuration controlled 3d designs of mechanical parts and assemblies' ) ;
#61 = LINE ( 'NONE', #88, #237 ) ;
#62 = CARTESIAN_POINT ( 'NONE',  ( 0.000000000000000000, 0.000000000000000000, 0.000000000000000000 ) ) ;
#63 = PERSON_AND_ORGANIZATION ( #45, #49 ) ;
#64 = APPROVAL_STATUS ( 'not_yet_approved' ) ;
#65 = EDGE_LOOP ( 'NONE', ( #156, #183, #72, #218 ) ) ;
#66 = PERSON_AND_ORGANIZATION ( #45, #49 ) ;
#67 = DIRECTION ( 'NONE',  ( 0.000000000000000000, 0.000000000000000000, 1.000000000000000000 ) ) ;
#68 = EDGE_CURVE ( 'NONE', #115, #184, #61, .T. ) ;
#69 = ORIENTED_EDGE ( 'NONE', *, *, #165, .T. ) ;
#70 = PERSON_AND_ORGANIZATION_ROLE ( 'creator' ) ;
#71 = EDGE_CURVE ( 'NONE', #115, #159, #9, .T. ) ;
#72 = ORIENTED_EDGE ( 'NONE', *, *, #68, .T. ) ;
#73 = CARTESIAN_POINT ( 'NONE',  ( 1.250000000000000000, 1.530808498934191571E-16, 1.199999999999999956 ) ) ;
#74 = SECURITY_CLASSIFICATION ( '', '', #149 ) ;
#75 = APPROVAL_PERSON_ORGANIZATION ( #63, #33, #170 ) ;
#76 = CARTESIAN_POINT ( 'NONE',  ( 0.000000000000000000, 0.000000000000000000, 100.0000000000000000 ) ) ;
#77 = CYLINDRICAL_SURFACE ( 'NONE', #246, 1.250000000000000000 ) ;
#78 = ORIENTED_EDGE ( 'NONE', *, *, #18, .T. ) ;
#79 = VERTEX_POINT ( 'NONE', #106 ) ;
#80 = ORIENTED_EDGE ( 'NONE', *, *, #68, .F. ) ;
#81 = CC_DESIGN_APPROVAL ( #33, ( #118 ) ) ;
#82 = CC_DESIGN_PERSON_AND_ORGANIZATION_ASSIGNMENT ( #53, #230, ( #74 ) ) ;
#83 =( NAMED_UNIT ( * ) SI_UNIT ( $, .STERADIAN. ) SOLID_ANGLE_UNIT ( ) );
#84 = CARTESIAN_POINT ( 'NONE',  ( 0.000000000000000000, 0.000000000000000000, 100.0000000000000000 ) ) ;
#85 = CIRCLE ( 'NONE', #52, 0.5000000000000000000 ) ;
#86 = CC_DESIGN_PERSON_AND_ORGANIZATION_ASSIGNMENT ( #66, #70, ( #29 ) ) ;
#87 = CIRCLE ( 'NONE', #190, 1.250000000000000000 ) ;
#88 = CARTESIAN_POINT ( 'NONE',  ( -0.5000000000000000000, 0.000000000000000000, 100.0000000000000000 ) ) ;
#89 = CARTESIAN_POINT ( 'NONE',  ( 0.000000000000000000, 0.000000000000000000, 100.0000000000000000 ) ) ;
#90 = CALENDAR_DATE ( 2023, 31, 1 ) ;
#91 = CYLINDRICAL_SURFACE ( 'NONE', #212, 1.250000000000000000 ) ;
#92 = LOCAL_TIME ( 15, 32, 46.00000000000000000, #251 ) ;
#93 = APPROVAL_STATUS ( 'not_yet_approved' ) ;
#94 = CARTESIAN_POINT ( 'NONE',  ( 0.5000000000000000000, 6.123233995736766036E-17, 100.0000000000000000 ) ) ;
#95 = APPROVAL ( #211, 'NEURÈENÝ' ) ;
#96 = CARTESIAN_POINT ( 'NONE',  ( -1.250000000000000000, 0.000000000000000000, 1.199999999999999956 ) ) ;
#97 = ORIENTED_EDGE ( 'NONE', *, *, #25, .T. ) ;
#98 = CARTESIAN_POINT ( 'NONE',  ( 0.000000000000000000, 0.000000000000000000, 100.0000000000000000 ) ) ;
#99 = AXIS2_PLACEMENT_3D ( 'NONE', #238, #20, #196 ) ;
#100 = ORIENTED_EDGE ( 'NONE', *, *, #165, .F. ) ;
#101 = ADVANCED_FACE ( 'NONE', ( #188 ), #7, .T. ) ;
#102 = ORIENTED_EDGE ( 'NONE', *, *, #133, .F. ) ;
#103 = FACE_OUTER_BOUND ( 'NONE', #65, .T. ) ;
#104 = ADVANCED_FACE ( 'NONE', ( #54 ), #91, .T. ) ;
#105 = DATE_TIME_ROLE ( 'creation_date' ) ;
#106 = CARTESIAN_POINT ( 'NONE',  ( 0.5000000000000000000, 6.123233995736766036E-17, 1.199999999999999956 ) ) ;
#107 = APPLICATION_PROTOCOL_DEFINITION ( 'international standard', 'config_control_design', 1994, #60 ) ;
#108 = APPROVAL_ROLE ( '' ) ;
#109 = LOCAL_TIME ( 15, 32, 46.00000000000000000, #55 ) ;
#110 = DIRECTION ( 'NONE',  ( -1.000000000000000000, 0.000000000000000000, 0.000000000000000000 ) ) ;
#111 = AXIS2_PLACEMENT_3D ( 'NONE', #89, #244, #143 ) ;
#112 = VERTEX_POINT ( 'NONE', #96 ) ;
#113 = DIRECTION ( 'NONE',  ( -0.000000000000000000, -0.000000000000000000, -1.000000000000000000 ) ) ;
#114 = CARTESIAN_POINT ( 'NONE',  ( 1.250000000000000000, 1.530808498934191571E-16, 0.000000000000000000 ) ) ;
#115 = VERTEX_POINT ( 'NONE', #169 ) ;
#116 = EDGE_LOOP ( 'NONE', ( #195, #189 ) ) ;
#117 = CIRCLE ( 'NONE', #58, 1.250000000000000000 ) ;
#118 = PRODUCT_DEFINITION ( 'NEZNÁMÝ', '', #29, #181 ) ;
#119 = CALENDAR_DATE ( 2023, 31, 1 ) ;
#120 = AXIS2_PLACEMENT_3D ( 'NONE', #128, #31, #36 ) ;
#121 = DIRECTION ( 'NONE',  ( 0.000000000000000000, 0.000000000000000000, 1.000000000000000000 ) ) ;
#122 = EDGE_CURVE ( 'NONE', #112, #200, #24, .T. ) ;
#123 = CARTESIAN_POINT ( 'NONE',  ( 0.000000000000000000, 0.000000000000000000, 100.0000000000000000 ) ) ;
#124 = DIRECTION ( 'NONE',  ( -0.000000000000000000, -0.000000000000000000, -1.000000000000000000 ) ) ;
#125 = PERSON_AND_ORGANIZATION ( #45, #49 ) ;
#126 = CYLINDRICAL_SURFACE ( 'NONE', #157, 0.5000000000000000000 ) ;
#127 = APPROVAL ( #64, 'NEURÈENÝ' ) ;
#128 = CARTESIAN_POINT ( 'NONE',  ( 0.000000000000000000, 0.000000000000000000, 1.199999999999999956 ) ) ;
#129 = VERTEX_POINT ( 'NONE', #151 ) ;
#130 = AXIS2_PLACEMENT_3D ( 'NONE', #76, #40, #1 ) ;
#131 = EDGE_LOOP ( 'NONE', ( #102, #13, #160, #100 ) ) ;
#132 =( NAMED_UNIT ( * ) PLANE_ANGLE_UNIT ( ) SI_UNIT ( $, .RADIAN. ) );
#133 = EDGE_CURVE ( 'NONE', #200, #112, #248, .T. ) ;
#134 = ADVANCED_FACE ( 'NONE', ( #250 ), #192, .F. ) ;
#135 = ORIENTED_EDGE ( 'NONE', *, *, #18, .F. ) ;
#136 = VECTOR ( 'NONE', #124, 1000.000000000000000 ) ;
#137 = PRODUCT_DEFINITION_SHAPE ( 'NONE', 'NONE',  #118 ) ;
#138 = CYLINDRICAL_SURFACE ( 'NONE', #130, 0.5000000000000000000 ) ;
#139 = CC_DESIGN_PERSON_AND_ORGANIZATION_ASSIGNMENT ( #5, #236, ( #220 ) ) ;
#140 = DIRECTION ( 'NONE',  ( -0.000000000000000000, -0.000000000000000000, -1.000000000000000000 ) ) ;
#141 = LOCAL_TIME ( 15, 32, 46.00000000000000000, #226 ) ;
#142 = CARTESIAN_POINT ( 'NONE',  ( 1.250000000000000000, 1.530808498934191571E-16, 1.199999999999999956 ) ) ;
#143 = DIRECTION ( 'NONE',  ( 1.000000000000000000, 0.000000000000000000, -0.000000000000000000 ) ) ;
#144 = COORDINATED_UNIVERSAL_TIME_OFFSET ( 1, 0, .AHEAD. ) ;
#145 = APPROVAL_PERSON_ORGANIZATION ( #243, #127, #108 ) ;
#146 = PERSON_AND_ORGANIZATION_ROLE ( 'design_supplier' ) ;
#147 = CARTESIAN_POINT ( 'NONE',  ( 0.000000000000000000, 0.000000000000000000, 1.199999999999999956 ) ) ;
#148 = ORIENTED_EDGE ( 'NONE', *, *, #205, .F. ) ;
#149 = SECURITY_CLASSIFICATION_LEVEL ( 'unclassified' ) ;
#150 = ORIENTED_EDGE ( 'NONE', *, *, #191, .F. ) ;
#151 = CARTESIAN_POINT ( 'NONE',  ( -1.250000000000000000, 0.000000000000000000, 0.000000000000000000 ) ) ;
#152 = ORIENTED_EDGE ( 'NONE', *, *, #176, .T. ) ;
#153 = ADVANCED_FACE ( 'NONE', ( #214 ), #126, .T. ) ;
#154 = LINE ( 'NONE', #174, #179 ) ;
#155 = CALENDAR_DATE ( 2023, 31, 1 ) ;
#156 = ORIENTED_EDGE ( 'NONE', *, *, #176, .F. ) ;
#157 = AXIS2_PLACEMENT_3D ( 'NONE', #123, #38, #110 ) ;
#158 = PRODUCT_RELATED_PRODUCT_CATEGORY ( 'detail', '', ( #220 ) ) ;
#159 = VERTEX_POINT ( 'NONE', #15 ) ;
#160 = ORIENTED_EDGE ( 'NONE', *, *, #46, .T. ) ;
#161 = DIRECTION ( 'NONE',  ( 0.000000000000000000, 0.000000000000000000, 1.000000000000000000 ) ) ;
#162 = CLOSED_SHELL ( 'NONE', ( #153, #14, #104, #185, #134, #208, #101 ) ) ;
#163 = DATE_AND_TIME ( #27, #109 ) ;
#164 = DIRECTION ( 'NONE',  ( 0.000000000000000000, 0.000000000000000000, 1.000000000000000000 ) ) ;
#165 = EDGE_CURVE ( 'NONE', #112, #129, #154, .T. ) ;
#166 = SHAPE_DEFINITION_REPRESENTATION ( #137, #10 ) ;
#167 = PERSON_AND_ORGANIZATION ( #45, #49 ) ;
#168 = PERSON_AND_ORGANIZATION_ROLE ( 'creator' ) ;
#169 = CARTESIAN_POINT ( 'NONE',  ( -0.5000000000000000000, 0.000000000000000000, 100.0000000000000000 ) ) ;
#170 = APPROVAL_ROLE ( '' ) ;
#171 = CARTESIAN_POINT ( 'NONE',  ( 0.000000000000000000, 0.000000000000000000, 1.199999999999999956 ) ) ;
#172 = CARTESIAN_POINT ( 'NONE',  ( 0.000000000000000000, 0.000000000000000000, 0.000000000000000000 ) ) ;
#173 = APPROVAL_PERSON_ORGANIZATION ( #125, #95, #35 ) ;
#174 = CARTESIAN_POINT ( 'NONE',  ( -1.250000000000000000, 0.000000000000000000, 1.199999999999999956 ) ) ;
#175 = ORIENTED_EDGE ( 'NONE', *, *, #213, .F. ) ;
#176 = EDGE_CURVE ( 'NONE', #159, #79, #215, .T. ) ;
#177 = DIRECTION ( 'NONE',  ( 0.000000000000000000, 0.000000000000000000, 1.000000000000000000 ) ) ;
#178 = DIRECTION ( 'NONE',  ( 0.000000000000000000, 0.000000000000000000, 1.000000000000000000 ) ) ;
#179 = VECTOR ( 'NONE', #255, 1000.000000000000000 ) ;
#180 = DIRECTION ( 'NONE',  ( 0.000000000000000000, 0.000000000000000000, 1.000000000000000000 ) ) ;
#181 = DESIGN_CONTEXT ( 'detailed design', #60, 'design' ) ;
#182 = CC_DESIGN_DATE_AND_TIME_ASSIGNMENT ( #249, #105, ( #118 ) ) ;
#183 = ORIENTED_EDGE ( 'NONE', *, *, #71, .F. ) ;
#184 = VERTEX_POINT ( 'NONE', #235 ) ;
#185 = ADVANCED_FACE ( 'NONE', ( #207, #194 ), #210, .T. ) ;
#186 = COORDINATED_UNIVERSAL_TIME_OFFSET ( 1, 0, .AHEAD. ) ;
#187 = CC_DESIGN_PERSON_AND_ORGANIZATION_ASSIGNMENT ( #51, #146, ( #29 ) ) ;
#188 = FACE_OUTER_BOUND ( 'NONE', #197, .T. ) ;
#189 = ORIENTED_EDGE ( 'NONE', *, *, #133, .T. ) ;
#190 = AXIS2_PLACEMENT_3D ( 'NONE', #62, #121, #245 ) ;
#191 = EDGE_CURVE ( 'NONE', #129, #217, #117, .T. ) ;
#192 = PLANE ( 'NONE',  #223 ) ;
#193 = AXIS2_PLACEMENT_3D ( 'NONE', #147, #229, #252 ) ;
#194 = FACE_OUTER_BOUND ( 'NONE', #116, .T. ) ;
#195 = ORIENTED_EDGE ( 'NONE', *, *, #122, .T. ) ;
#196 = DIRECTION ( 'NONE',  ( 1.000000000000000000, 0.000000000000000000, 0.000000000000000000 ) ) ;
#197 = EDGE_LOOP ( 'NONE', ( #17, #78 ) ) ;
#198 = AXIS2_PLACEMENT_3D ( 'NONE', #98, #180, #59 ) ;
#199 = AXIS2_PLACEMENT_3D ( 'NONE', #231, #177, #32 ) ;
#200 = VERTEX_POINT ( 'NONE', #142 ) ;
#201 = DIRECTION ( 'NONE',  ( -0.000000000000000000, -0.000000000000000000, -1.000000000000000000 ) ) ;
#202 =( GEOMETRIC_REPRESENTATION_CONTEXT ( 3 ) GLOBAL_UNCERTAINTY_ASSIGNED_CONTEXT ( ( #209 ) ) GLOBAL_UNIT_ASSIGNED_CONTEXT ( ( #240, #132, #83 ) ) REPRESENTATION_CONTEXT ( 'NONE', 'WORKASPACE' ) );
#203 = DIRECTION ( 'NONE',  ( 1.000000000000000000, 0.000000000000000000, 0.000000000000000000 ) ) ;
#204 = APPROVAL_DATE_TIME ( #228, #127 ) ;
#205 = EDGE_CURVE ( 'NONE', #184, #79, #16, .T. ) ;
#206 = APPROVAL_DATE_TIME ( #50, #33 ) ;
#207 = FACE_BOUND ( 'NONE', #224, .T. ) ;
#208 = ADVANCED_FACE ( 'NONE', ( #103 ), #138, .T. ) ;
#209 = UNCERTAINTY_MEASURE_WITH_UNIT (LENGTH_MEASURE( 1.000000000000000082E-05 ), #240, 'distance_accuracy_value', 'NONE');
#210 = PLANE ( 'NONE',  #193 ) ;
#211 = APPROVAL_STATUS ( 'not_yet_approved' ) ;
#212 = AXIS2_PLACEMENT_3D ( 'NONE', #171, #11, #57 ) ;
#213 = EDGE_CURVE ( 'NONE', #200, #217, #42, .T. ) ;
#214 = FACE_OUTER_BOUND ( 'NONE', #37, .T. ) ;
#215 = LINE ( 'NONE', #94, #136 ) ;
#216 = CARTESIAN_POINT ( 'NONE',  ( 0.000000000000000000, 0.000000000000000000, 0.000000000000000000 ) ) ;
#217 = VERTEX_POINT ( 'NONE', #114 ) ;
#218 = ORIENTED_EDGE ( 'NONE', *, *, #205, .T. ) ;
#219 = FACE_OUTER_BOUND ( 'NONE', #131, .T. ) ;
#220 = PRODUCT ( '7a9b', '7a9b', '', ( #26 ) ) ;
#221 = CARTESIAN_POINT ( 'NONE',  ( 0.000000000000000000, 0.000000000000000000, 0.000000000000000000 ) ) ;
#222 = CC_DESIGN_APPROVAL ( #95, ( #74 ) ) ;
#223 = AXIS2_PLACEMENT_3D ( 'NONE', #172, #67, #233 ) ;
#224 = EDGE_LOOP ( 'NONE', ( #148, #4 ) ) ;
#225 = CC_DESIGN_PERSON_AND_ORGANIZATION_ASSIGNMENT ( #167, #168, ( #118 ) ) ;
#226 = COORDINATED_UNIVERSAL_TIME_OFFSET ( 1, 0, .AHEAD. ) ;
#227 = DIRECTION ( 'NONE',  ( 1.000000000000000000, 0.000000000000000000, 0.000000000000000000 ) ) ;
#228 = DATE_AND_TIME ( #119, #21 ) ;
#229 = DIRECTION ( 'NONE',  ( 0.000000000000000000, 0.000000000000000000, 1.000000000000000000 ) ) ;
#230 = PERSON_AND_ORGANIZATION_ROLE ( 'classification_officer' ) ;
#231 = CARTESIAN_POINT ( 'NONE',  ( 0.000000000000000000, 0.000000000000000000, 1.199999999999999956 ) ) ;
#232 = AXIS2_PLACEMENT_3D ( 'NONE', #221, #47, #203 ) ;
#233 = DIRECTION ( 'NONE',  ( 1.000000000000000000, 0.000000000000000000, -0.000000000000000000 ) ) ;
#234 = EDGE_LOOP ( 'NONE', ( #175, #2, #69, #241 ) ) ;
#235 = CARTESIAN_POINT ( 'NONE',  ( -0.5000000000000000000, 0.000000000000000000, 1.199999999999999956 ) ) ;
#236 = PERSON_AND_ORGANIZATION_ROLE ( 'design_owner' ) ;
#237 = VECTOR ( 'NONE', #140, 1000.000000000000000 ) ;
#238 = CARTESIAN_POINT ( 'NONE',  ( 0.000000000000000000, 0.000000000000000000, 1.199999999999999956 ) ) ;
#239 = CARTESIAN_POINT ( 'NONE',  ( 0.000000000000000000, 0.000000000000000000, 1.199999999999999956 ) ) ;
#240 =( LENGTH_UNIT ( ) NAMED_UNIT ( * ) SI_UNIT ( .MILLI., .METRE. ) );
#241 = ORIENTED_EDGE ( 'NONE', *, *, #191, .T. ) ;
#242 = DIRECTION ( 'NONE',  ( 1.000000000000000000, 0.000000000000000000, 0.000000000000000000 ) ) ;
#243 = PERSON_AND_ORGANIZATION ( #45, #49 ) ;
#244 = DIRECTION ( 'NONE',  ( 0.000000000000000000, 0.000000000000000000, 1.000000000000000000 ) ) ;
#245 = DIRECTION ( 'NONE',  ( 1.000000000000000000, 0.000000000000000000, 0.000000000000000000 ) ) ;
#246 = AXIS2_PLACEMENT_3D ( 'NONE', #239, #201, #41 ) ;
#247 = CC_DESIGN_DATE_AND_TIME_ASSIGNMENT ( #163, #6, ( #74 ) ) ;
#248 = CIRCLE ( 'NONE', #199, 1.250000000000000000 ) ;
#249 = DATE_AND_TIME ( #12, #92 ) ;
#250 = FACE_OUTER_BOUND ( 'NONE', #19, .T. ) ;
#251 = COORDINATED_UNIVERSAL_TIME_OFFSET ( 1, 0, .AHEAD. ) ;
#252 = DIRECTION ( 'NONE',  ( 1.000000000000000000, 0.000000000000000000, -0.000000000000000000 ) ) ;
#253 = APPROVAL_DATE_TIME ( #254, #95 ) ;
#254 = DATE_AND_TIME ( #155, #141 ) ;
#255 = DIRECTION ( 'NONE',  ( -0.000000000000000000, -0.000000000000000000, -1.000000000000000000 ) ) ;
ENDSEC;
END-ISO-10303-21;
