ISO-10303-21;
HEADER;
FILE_DESCRIPTION (( 'STEP AP203' ),
    '1' );
FILE_NAME ('3f53.STEP',
    '2023-02-13T15:07:31',
    ( '' ),
    ( '' ),
    'SwSTEP 2.0',
    'SolidWorks 2019',
    '' );
FILE_SCHEMA (( 'CONFIG_CONTROL_DESIGN' ));
ENDSEC;

DATA;
#1 = CARTESIAN_POINT ( 'NONE',  ( 0.000000000000000000, 0.000000000000000000, 3.000000000000000000 ) ) ;
#2 = COORDINATED_UNIVERSAL_TIME_OFFSET ( 1, 0, .AHEAD. ) ;
#3 = EDGE_LOOP ( 'NONE', ( #163, #245 ) ) ;
#4 = ORIENTED_EDGE ( 'NONE', *, *, #203, .T. ) ;
#5 = DIRECTION ( 'NONE',  ( 0.000000000000000000, 0.000000000000000000, 1.000000000000000000 ) ) ;
#6 = APPROVAL_ROLE ( '' ) ;
#7 = PRODUCT_DEFINITION_SHAPE ( 'NONE', 'NONE',  #141 ) ;
#8 = EDGE_LOOP ( 'NONE', ( #124, #225, #242, #181 ) ) ;
#9 = LINE ( 'NONE', #83, #50 ) ;
#10 = EDGE_LOOP ( 'NONE', ( #30, #104 ) ) ;
#11 = CIRCLE ( 'NONE', #108, 4.000000000000000000 ) ;
#12 = DIRECTION ( 'NONE',  ( 0.000000000000000000, 0.000000000000000000, 1.000000000000000000 ) ) ;
#13 = DIRECTION ( 'NONE',  ( 0.000000000000000000, 0.000000000000000000, 1.000000000000000000 ) ) ;
#14 = LOCAL_TIME ( 16, 7, 31.00000000000000000, #2 ) ;
#15 =( GEOMETRIC_REPRESENTATION_CONTEXT ( 3 ) GLOBAL_UNCERTAINTY_ASSIGNED_CONTEXT ( ( #90 ) ) GLOBAL_UNIT_ASSIGNED_CONTEXT ( ( #138, #26, #186 ) ) REPRESENTATION_CONTEXT ( 'NONE', 'WORKASPACE' ) );
#16 = ORIENTED_EDGE ( 'NONE', *, *, #75, .F. ) ;
#17 = CC_DESIGN_APPROVAL ( #130, ( #141 ) ) ;
#18 = DIRECTION ( 'NONE',  ( -0.000000000000000000, -0.000000000000000000, -1.000000000000000000 ) ) ;
#19 = CARTESIAN_POINT ( 'NONE',  ( 4.000000000000000000, 4.898587196589412829E-16, 3.000000000000000000 ) ) ;
#20 = APPLICATION_CONTEXT ( 'configuration controlled 3d designs of mechanical parts and assemblies' ) ;
#21 = ADVANCED_FACE ( 'NONE', ( #182, #144 ), #81, .T. ) ;
#22 = SECURITY_CLASSIFICATION ( '', '', #254 ) ;
#23 = CARTESIAN_POINT ( 'NONE',  ( 0.000000000000000000, 0.000000000000000000, 3.000000000000000000 ) ) ;
#24 = VERTEX_POINT ( 'NONE', #229 ) ;
#25 = DIRECTION ( 'NONE',  ( -1.000000000000000000, 0.000000000000000000, 0.000000000000000000 ) ) ;
#26 =( NAMED_UNIT ( * ) PLANE_ANGLE_UNIT ( ) SI_UNIT ( $, .RADIAN. ) );
#27 = LINE ( 'NONE', #228, #76 ) ;
#28 = ORIENTED_EDGE ( 'NONE', *, *, #203, .F. ) ;
#29 = DIRECTION ( 'NONE',  ( -0.000000000000000000, -0.000000000000000000, -1.000000000000000000 ) ) ;
#30 = ORIENTED_EDGE ( 'NONE', *, *, #215, .F. ) ;
#31 = VERTEX_POINT ( 'NONE', #185 ) ;
#32 = PERSON_AND_ORGANIZATION ( #150, #68 ) ;
#33 = CLOSED_SHELL ( 'NONE', ( #60, #145, #169, #21, #160, #45, #96 ) ) ;
#34 = DIRECTION ( 'NONE',  ( -0.000000000000000000, -0.000000000000000000, -1.000000000000000000 ) ) ;
#35 = DIRECTION ( 'NONE',  ( 0.000000000000000000, 0.000000000000000000, 1.000000000000000000 ) ) ;
#36 = CIRCLE ( 'NONE', #148, 2.000000000000000000 ) ;
#37 = APPROVAL_PERSON_ORGANIZATION ( #32, #130, #6 ) ;
#38 = AXIS2_PLACEMENT_3D ( 'NONE', #105, #12, #166 ) ;
#39 = CC_DESIGN_PERSON_AND_ORGANIZATION_ASSIGNMENT ( #222, #209, ( #22 ) ) ;
#40 = APPROVAL_PERSON_ORGANIZATION ( #134, #190, #199 ) ;
#41 = DIRECTION ( 'NONE',  ( 0.000000000000000000, 0.000000000000000000, 1.000000000000000000 ) ) ;
#42 = DIRECTION ( 'NONE',  ( 0.000000000000000000, 0.000000000000000000, 1.000000000000000000 ) ) ;
#43 = SHAPE_DEFINITION_REPRESENTATION ( #7, #113 ) ;
#44 = CYLINDRICAL_SURFACE ( 'NONE', #198, 4.000000000000000000 ) ;
#45 = ADVANCED_FACE ( 'NONE', ( #48 ), #210, .T. ) ;
#46 = ORIENTED_EDGE ( 'NONE', *, *, #51, .T. ) ;
#47 = VERTEX_POINT ( 'NONE', #175 ) ;
#48 = FACE_OUTER_BOUND ( 'NONE', #109, .T. ) ;
#49 = DIRECTION ( 'NONE',  ( -1.000000000000000000, 0.000000000000000000, 0.000000000000000000 ) ) ;
#50 = VECTOR ( 'NONE', #165, 1000.000000000000000 ) ;
#51 = EDGE_CURVE ( 'NONE', #224, #47, #240, .T. ) ;
#52 = CC_DESIGN_SECURITY_CLASSIFICATION ( #22, ( #63 ) ) ;
#53 = DATE_AND_TIME ( #159, #59 ) ;
#54 = VECTOR ( 'NONE', #179, 1000.000000000000000 ) ;
#55 = PRODUCT_RELATED_PRODUCT_CATEGORY ( 'detail', '', ( #79 ) ) ;
#56 = AXIS2_PLACEMENT_3D ( 'NONE', #125, #13, #158 ) ;
#57 = DIRECTION ( 'NONE',  ( 1.000000000000000000, 0.000000000000000000, 0.000000000000000000 ) ) ;
#58 = APPLICATION_PROTOCOL_DEFINITION ( 'international standard', 'config_control_design', 1994, #20 ) ;
#59 = LOCAL_TIME ( 16, 7, 31.00000000000000000, #107 ) ;
#60 = ADVANCED_FACE ( 'NONE', ( #92 ), #171, .T. ) ;
#61 = EDGE_LOOP ( 'NONE', ( #161, #80 ) ) ;
#62 = DATE_AND_TIME ( #172, #14 ) ;
#63 = PRODUCT_DEFINITION_FORMATION_WITH_SPECIFIED_SOURCE ( 'LIBOVOLNÝ', '', #79, .NOT_KNOWN. ) ;
#64 = ORIENTED_EDGE ( 'NONE', *, *, #111, .F. ) ;
#65 = APPROVAL_STATUS ( 'not_yet_approved' ) ;
#66 = APPLICATION_CONTEXT ( 'configuration controlled 3d designs of mechanical parts and assemblies' ) ;
#67 = DIRECTION ( 'NONE',  ( 0.000000000000000000, 0.000000000000000000, 1.000000000000000000 ) ) ;
#68 = ORGANIZATION ( 'NEURÈENÝ', 'NEURÈENÝ', '' ) ;
#69 = CC_DESIGN_DATE_AND_TIME_ASSIGNMENT ( #183, #189, ( #141 ) ) ;
#70 = DIRECTION ( 'NONE',  ( 0.000000000000000000, 0.000000000000000000, 1.000000000000000000 ) ) ;
#71 = DESIGN_CONTEXT ( 'detailed design', #66, 'design' ) ;
#72 = DIRECTION ( 'NONE',  ( 1.000000000000000000, 0.000000000000000000, 0.000000000000000000 ) ) ;
#73 = CARTESIAN_POINT ( 'NONE',  ( 0.000000000000000000, 0.000000000000000000, 250.0000000000000000 ) ) ;
#74 = AXIS2_PLACEMENT_3D ( 'NONE', #77, #34, #87 ) ;
#75 = EDGE_CURVE ( 'NONE', #162, #31, #11, .T. ) ;
#76 = VECTOR ( 'NONE', #29, 1000.000000000000000 ) ;
#77 = CARTESIAN_POINT ( 'NONE',  ( 0.000000000000000000, 0.000000000000000000, 250.0000000000000000 ) ) ;
#78 = FACE_OUTER_BOUND ( 'NONE', #208, .T. ) ;
#79 = PRODUCT ( '3f53', '3f53', '', ( #248 ) ) ;
#80 = ORIENTED_EDGE ( 'NONE', *, *, #132, .F. ) ;
#81 = PLANE ( 'NONE',  #38 ) ;
#82 = ORIENTED_EDGE ( 'NONE', *, *, #132, .T. ) ;
#83 = CARTESIAN_POINT ( 'NONE',  ( -4.000000000000000000, 0.000000000000000000, 3.000000000000000000 ) ) ;
#84 = VERTEX_POINT ( 'NONE', #153 ) ;
#85 = CC_DESIGN_APPROVAL ( #196, ( #63 ) ) ;
#86 = CC_DESIGN_PERSON_AND_ORGANIZATION_ASSIGNMENT ( #202, #227, ( #141 ) ) ;
#87 = DIRECTION ( 'NONE',  ( -1.000000000000000000, 0.000000000000000000, 0.000000000000000000 ) ) ;
#88 = CARTESIAN_POINT ( 'NONE',  ( -2.000000000000000000, 0.000000000000000000, 250.0000000000000000 ) ) ;
#89 = DIRECTION ( 'NONE',  ( 1.000000000000000000, 0.000000000000000000, 0.000000000000000000 ) ) ;
#90 = UNCERTAINTY_MEASURE_WITH_UNIT (LENGTH_MEASURE( 1.000000000000000082E-05 ), #138, 'distance_accuracy_value', 'NONE');
#91 = COORDINATED_UNIVERSAL_TIME_OFFSET ( 1, 0, .AHEAD. ) ;
#92 = FACE_OUTER_BOUND ( 'NONE', #156, .T. ) ;
#93 = CIRCLE ( 'NONE', #146, 4.000000000000000000 ) ;
#94 = CIRCLE ( 'NONE', #136, 4.000000000000000000 ) ;
#95 = PLANE ( 'NONE',  #212 ) ;
#96 = ADVANCED_FACE ( 'NONE', ( #78 ), #95, .T. ) ;
#97 = APPROVAL_ROLE ( '' ) ;
#98 = ORIENTED_EDGE ( 'NONE', *, *, #191, .T. ) ;
#99 = DIRECTION ( 'NONE',  ( 0.000000000000000000, 0.000000000000000000, 1.000000000000000000 ) ) ;
#100 = PERSON_AND_ORGANIZATION ( #150, #68 ) ;
#101 = AXIS2_PLACEMENT_3D ( 'NONE', #176, #99, #57 ) ;
#102 = CARTESIAN_POINT ( 'NONE',  ( 2.000000000000000000, 2.449293598294706414E-16, 250.0000000000000000 ) ) ;
#103 = DIRECTION ( 'NONE',  ( 1.000000000000000000, 0.000000000000000000, 0.000000000000000000 ) ) ;
#104 = ORIENTED_EDGE ( 'NONE', *, *, #231, .F. ) ;
#105 = CARTESIAN_POINT ( 'NONE',  ( 0.000000000000000000, 0.000000000000000000, 3.000000000000000000 ) ) ;
#106 = CALENDAR_DATE ( 2023, 13, 2 ) ;
#107 = COORDINATED_UNIVERSAL_TIME_OFFSET ( 1, 0, .AHEAD. ) ;
#108 = AXIS2_PLACEMENT_3D ( 'NONE', #1, #41, #200 ) ;
#109 = EDGE_LOOP ( 'NONE', ( #140, #28, #142, #122 ) ) ;
#110 = DIRECTION ( 'NONE',  ( -0.000000000000000000, -0.000000000000000000, -1.000000000000000000 ) ) ;
#111 = EDGE_CURVE ( 'NONE', #224, #24, #152, .T. ) ;
#112 = APPROVAL_DATE_TIME ( #235, #196 ) ;
#113 = ADVANCED_BREP_SHAPE_REPRESENTATION ( '3f53', ( #187, #127 ), #15 ) ;
#114 = EDGE_CURVE ( 'NONE', #226, #47, #255, .T. ) ;
#115 = COORDINATED_UNIVERSAL_TIME_OFFSET ( 1, 0, .AHEAD. ) ;
#116 = CARTESIAN_POINT ( 'NONE',  ( 0.000000000000000000, 0.000000000000000000, 250.0000000000000000 ) ) ;
#117 = DATE_AND_TIME ( #151, #121 ) ;
#118 = APPROVAL_DATE_TIME ( #53, #130 ) ;
#119 = ORIENTED_EDGE ( 'NONE', *, *, #111, .T. ) ;
#120 = CARTESIAN_POINT ( 'NONE',  ( 0.000000000000000000, 0.000000000000000000, 3.000000000000000000 ) ) ;
#121 = LOCAL_TIME ( 16, 7, 31.00000000000000000, #115 ) ;
#122 = ORIENTED_EDGE ( 'NONE', *, *, #114, .T. ) ;
#123 = PERSON_AND_ORGANIZATION_ROLE ( 'design_owner' ) ;
#124 = ORIENTED_EDGE ( 'NONE', *, *, #191, .F. ) ;
#125 = CARTESIAN_POINT ( 'NONE',  ( 0.000000000000000000, 0.000000000000000000, 0.000000000000000000 ) ) ;
#126 = ORIENTED_EDGE ( 'NONE', *, *, #178, .F. ) ;
#127 = AXIS2_PLACEMENT_3D ( 'NONE', #167, #213, #234 ) ;
#128 = AXIS2_PLACEMENT_3D ( 'NONE', #180, #42, #103 ) ;
#129 = CIRCLE ( 'NONE', #251, 4.000000000000000000 ) ;
#130 = APPROVAL ( #65, 'NEURÈENÝ' ) ;
#131 = CARTESIAN_POINT ( 'NONE',  ( -2.000000000000000000, 0.000000000000000000, 3.000000000000000000 ) ) ;
#132 = EDGE_CURVE ( 'NONE', #47, #226, #36, .T. ) ;
#133 = AXIS2_PLACEMENT_3D ( 'NONE', #246, #70, #89 ) ;
#134 = PERSON_AND_ORGANIZATION ( #150, #68 ) ;
#135 = PERSON_AND_ORGANIZATION ( #150, #68 ) ;
#136 = AXIS2_PLACEMENT_3D ( 'NONE', #233, #35, #216 ) ;
#137 = DIRECTION ( 'NONE',  ( -0.000000000000000000, -0.000000000000000000, -1.000000000000000000 ) ) ;
#138 =( LENGTH_UNIT ( ) NAMED_UNIT ( * ) SI_UNIT ( .MILLI., .METRE. ) );
#139 = ORIENTED_EDGE ( 'NONE', *, *, #149, .F. ) ;
#140 = ORIENTED_EDGE ( 'NONE', *, *, #51, .F. ) ;
#141 = PRODUCT_DEFINITION ( 'NEZNÁMÝ', '', #63, #71 ) ;
#142 = ORIENTED_EDGE ( 'NONE', *, *, #178, .T. ) ;
#143 = FACE_OUTER_BOUND ( 'NONE', #10, .T. ) ;
#144 = FACE_OUTER_BOUND ( 'NONE', #3, .T. ) ;
#145 = ADVANCED_FACE ( 'NONE', ( #220 ), #44, .T. ) ;
#146 = AXIS2_PLACEMENT_3D ( 'NONE', #168, #67, #147 ) ;
#147 = DIRECTION ( 'NONE',  ( 1.000000000000000000, 0.000000000000000000, 0.000000000000000000 ) ) ;
#148 = AXIS2_PLACEMENT_3D ( 'NONE', #23, #5, #241 ) ;
#149 = EDGE_CURVE ( 'NONE', #31, #84, #9, .T. ) ;
#150 = PERSON ( 'NEURÈENÝ', 'NEURÈENÝ', 'NEURÈENÝ', ('NEURÈENÝ'), ('NEURÈENÝ'), ('NEURÈENÝ') ) ;
#151 = CALENDAR_DATE ( 2023, 13, 2 ) ;
#152 = CIRCLE ( 'NONE', #101, 2.000000000000000000 ) ;
#153 = CARTESIAN_POINT ( 'NONE',  ( -4.000000000000000000, 0.000000000000000000, 0.000000000000000000 ) ) ;
#154 = PLANE ( 'NONE',  #56 ) ;
#155 = PERSON_AND_ORGANIZATION_ROLE ( 'design_supplier' ) ;
#156 = EDGE_LOOP ( 'NONE', ( #64, #46, #82, #126 ) ) ;
#157 = DIRECTION ( 'NONE',  ( 1.000000000000000000, 0.000000000000000000, -0.000000000000000000 ) ) ;
#158 = DIRECTION ( 'NONE',  ( 1.000000000000000000, 0.000000000000000000, -0.000000000000000000 ) ) ;
#159 = CALENDAR_DATE ( 2023, 13, 2 ) ;
#160 = ADVANCED_FACE ( 'NONE', ( #143 ), #154, .F. ) ;
#161 = ORIENTED_EDGE ( 'NONE', *, *, #114, .F. ) ;
#162 = VERTEX_POINT ( 'NONE', #19 ) ;
#163 = ORIENTED_EDGE ( 'NONE', *, *, #247, .T. ) ;
#164 = AXIS2_PLACEMENT_3D ( 'NONE', #73, #137, #173 ) ;
#165 = DIRECTION ( 'NONE',  ( -0.000000000000000000, -0.000000000000000000, -1.000000000000000000 ) ) ;
#166 = DIRECTION ( 'NONE',  ( 1.000000000000000000, 0.000000000000000000, -0.000000000000000000 ) ) ;
#167 = CARTESIAN_POINT ( 'NONE',  ( 0.000000000000000000, 0.000000000000000000, 0.000000000000000000 ) ) ;
#168 = CARTESIAN_POINT ( 'NONE',  ( 0.000000000000000000, 0.000000000000000000, 0.000000000000000000 ) ) ;
#169 = ADVANCED_FACE ( 'NONE', ( #244 ), #223, .T. ) ;
#170 = APPROVAL_PERSON_ORGANIZATION ( #232, #196, #97 ) ;
#171 = CYLINDRICAL_SURFACE ( 'NONE', #164, 2.000000000000000000 ) ;
#172 = CALENDAR_DATE ( 2023, 13, 2 ) ;
#173 = DIRECTION ( 'NONE',  ( -1.000000000000000000, 0.000000000000000000, 0.000000000000000000 ) ) ;
#174 = CALENDAR_DATE ( 2023, 13, 2 ) ;
#175 = CARTESIAN_POINT ( 'NONE',  ( 2.000000000000000000, 2.449293598294706414E-16, 3.000000000000000000 ) ) ;
#176 = CARTESIAN_POINT ( 'NONE',  ( 0.000000000000000000, 0.000000000000000000, 250.0000000000000000 ) ) ;
#177 = APPLICATION_PROTOCOL_DEFINITION ( 'international standard', 'config_control_design', 1994, #66 ) ;
#178 = EDGE_CURVE ( 'NONE', #24, #226, #188, .T. ) ;
#179 = DIRECTION ( 'NONE',  ( -0.000000000000000000, -0.000000000000000000, -1.000000000000000000 ) ) ;
#180 = CARTESIAN_POINT ( 'NONE',  ( 0.000000000000000000, 0.000000000000000000, 3.000000000000000000 ) ) ;
#181 = ORIENTED_EDGE ( 'NONE', *, *, #215, .T. ) ;
#182 = FACE_BOUND ( 'NONE', #61, .T. ) ;
#183 = DATE_AND_TIME ( #106, #221 ) ;
#184 = AXIS2_PLACEMENT_3D ( 'NONE', #207, #110, #49 ) ;
#185 = CARTESIAN_POINT ( 'NONE',  ( -4.000000000000000000, 0.000000000000000000, 3.000000000000000000 ) ) ;
#186 =( NAMED_UNIT ( * ) SI_UNIT ( $, .STERADIAN. ) SOLID_ANGLE_UNIT ( ) );
#187 = MANIFOLD_SOLID_BREP ( 'Pøidat vysunutím3', #33 ) ;
#188 = LINE ( 'NONE', #88, #194 ) ;
#189 = DATE_TIME_ROLE ( 'creation_date' ) ;
#190 = APPROVAL ( #206, 'NEURÈENÝ' ) ;
#191 = EDGE_CURVE ( 'NONE', #162, #219, #27, .T. ) ;
#192 = CC_DESIGN_PERSON_AND_ORGANIZATION_ASSIGNMENT ( #135, #155, ( #63 ) ) ;
#193 = CARTESIAN_POINT ( 'NONE',  ( 0.000000000000000000, 0.000000000000000000, 3.000000000000000000 ) ) ;
#194 = VECTOR ( 'NONE', #18, 1000.000000000000000 ) ;
#195 = CC_DESIGN_APPROVAL ( #190, ( #22 ) ) ;
#196 = APPROVAL ( #197, 'NEURÈENÝ' ) ;
#197 = APPROVAL_STATUS ( 'not_yet_approved' ) ;
#198 = AXIS2_PLACEMENT_3D ( 'NONE', #120, #205, #25 ) ;
#199 = APPROVAL_ROLE ( '' ) ;
#200 = DIRECTION ( 'NONE',  ( 1.000000000000000000, 0.000000000000000000, 0.000000000000000000 ) ) ;
#201 = DATE_TIME_ROLE ( 'classification_date' ) ;
#202 = PERSON_AND_ORGANIZATION ( #150, #68 ) ;
#203 = EDGE_CURVE ( 'NONE', #24, #224, #230, .T. ) ;
#204 = EDGE_LOOP ( 'NONE', ( #16, #98, #243, #139 ) ) ;
#205 = DIRECTION ( 'NONE',  ( -0.000000000000000000, -0.000000000000000000, -1.000000000000000000 ) ) ;
#206 = APPROVAL_STATUS ( 'not_yet_approved' ) ;
#207 = CARTESIAN_POINT ( 'NONE',  ( 0.000000000000000000, 0.000000000000000000, 3.000000000000000000 ) ) ;
#208 = EDGE_LOOP ( 'NONE', ( #4, #119 ) ) ;
#209 = PERSON_AND_ORGANIZATION_ROLE ( 'classification_officer' ) ;
#210 = CYLINDRICAL_SURFACE ( 'NONE', #74, 2.000000000000000000 ) ;
#211 = COORDINATED_UNIVERSAL_TIME_OFFSET ( 1, 0, .AHEAD. ) ;
#212 = AXIS2_PLACEMENT_3D ( 'NONE', #116, #218, #157 ) ;
#213 = DIRECTION ( 'NONE',  ( 0.000000000000000000, 0.000000000000000000, 1.000000000000000000 ) ) ;
#214 = CARTESIAN_POINT ( 'NONE',  ( 2.000000000000000000, 2.449293598294706414E-16, 250.0000000000000000 ) ) ;
#215 = EDGE_CURVE ( 'NONE', #84, #219, #93, .T. ) ;
#216 = DIRECTION ( 'NONE',  ( 1.000000000000000000, 0.000000000000000000, 0.000000000000000000 ) ) ;
#217 = PERSON_AND_ORGANIZATION ( #150, #68 ) ;
#218 = DIRECTION ( 'NONE',  ( 0.000000000000000000, 0.000000000000000000, 1.000000000000000000 ) ) ;
#219 = VERTEX_POINT ( 'NONE', #249 ) ;
#220 = FACE_OUTER_BOUND ( 'NONE', #204, .T. ) ;
#221 = LOCAL_TIME ( 16, 7, 31.00000000000000000, #211 ) ;
#222 = PERSON_AND_ORGANIZATION ( #150, #68 ) ;
#223 = CYLINDRICAL_SURFACE ( 'NONE', #184, 4.000000000000000000 ) ;
#224 = VERTEX_POINT ( 'NONE', #214 ) ;
#225 = ORIENTED_EDGE ( 'NONE', *, *, #247, .F. ) ;
#226 = VERTEX_POINT ( 'NONE', #131 ) ;
#227 = PERSON_AND_ORGANIZATION_ROLE ( 'creator' ) ;
#228 = CARTESIAN_POINT ( 'NONE',  ( 4.000000000000000000, 4.898587196589412829E-16, 3.000000000000000000 ) ) ;
#229 = CARTESIAN_POINT ( 'NONE',  ( -2.000000000000000000, 0.000000000000000000, 250.0000000000000000 ) ) ;
#230 = CIRCLE ( 'NONE', #133, 2.000000000000000000 ) ;
#231 = EDGE_CURVE ( 'NONE', #219, #84, #94, .T. ) ;
#232 = PERSON_AND_ORGANIZATION ( #150, #68 ) ;
#233 = CARTESIAN_POINT ( 'NONE',  ( 0.000000000000000000, 0.000000000000000000, 0.000000000000000000 ) ) ;
#234 = DIRECTION ( 'NONE',  ( 1.000000000000000000, 0.000000000000000000, 0.000000000000000000 ) ) ;
#235 = DATE_AND_TIME ( #174, #236 ) ;
#236 = LOCAL_TIME ( 16, 7, 31.00000000000000000, #91 ) ;
#237 = CC_DESIGN_PERSON_AND_ORGANIZATION_ASSIGNMENT ( #217, #239, ( #63 ) ) ;
#238 = APPROVAL_DATE_TIME ( #117, #190 ) ;
#239 = PERSON_AND_ORGANIZATION_ROLE ( 'creator' ) ;
#240 = LINE ( 'NONE', #102, #54 ) ;
#241 = DIRECTION ( 'NONE',  ( 1.000000000000000000, 0.000000000000000000, 0.000000000000000000 ) ) ;
#242 = ORIENTED_EDGE ( 'NONE', *, *, #149, .T. ) ;
#243 = ORIENTED_EDGE ( 'NONE', *, *, #231, .T. ) ;
#244 = FACE_OUTER_BOUND ( 'NONE', #8, .T. ) ;
#245 = ORIENTED_EDGE ( 'NONE', *, *, #75, .T. ) ;
#246 = CARTESIAN_POINT ( 'NONE',  ( 0.000000000000000000, 0.000000000000000000, 250.0000000000000000 ) ) ;
#247 = EDGE_CURVE ( 'NONE', #31, #162, #129, .T. ) ;
#248 = MECHANICAL_CONTEXT ( 'NONE', #20, 'mechanical' ) ;
#249 = CARTESIAN_POINT ( 'NONE',  ( 4.000000000000000000, 4.898587196589412829E-16, 0.000000000000000000 ) ) ;
#250 = CC_DESIGN_DATE_AND_TIME_ASSIGNMENT ( #62, #201, ( #22 ) ) ;
#251 = AXIS2_PLACEMENT_3D ( 'NONE', #193, #253, #72 ) ;
#252 = CC_DESIGN_PERSON_AND_ORGANIZATION_ASSIGNMENT ( #100, #123, ( #79 ) ) ;
#253 = DIRECTION ( 'NONE',  ( 0.000000000000000000, 0.000000000000000000, 1.000000000000000000 ) ) ;
#254 = SECURITY_CLASSIFICATION_LEVEL ( 'unclassified' ) ;
#255 = CIRCLE ( 'NONE', #128, 2.000000000000000000 ) ;
ENDSEC;
END-ISO-10303-21;
