ISO-10303-21;
HEADER;
FILE_DESCRIPTION (( 'STEP AP203' ),
    '1' );
FILE_NAME ('171d.STEP',
    '2023-02-13T07:53:24',
    ( '' ),
    ( '' ),
    'SwSTEP 2.0',
    'SolidWorks 2019',
    '' );
FILE_SCHEMA (( 'CONFIG_CONTROL_DESIGN' ));
ENDSEC;

DATA;
#1 = CARTESIAN_POINT ( 'NONE',  ( -13.00000000000000178, 0.000000000000000000, 8.000000000000000000 ) ) ;
#2 = PERSON_AND_ORGANIZATION ( #65, #97 ) ;
#3 = FACE_OUTER_BOUND ( 'NONE', #216, .T. ) ;
#4 = CIRCLE ( 'NONE', #174, 13.00000000000000178 ) ;
#5 = DIRECTION ( 'NONE',  ( -0.000000000000000000, -0.000000000000000000, -1.000000000000000000 ) ) ;
#6 = UNCERTAINTY_MEASURE_WITH_UNIT (LENGTH_MEASURE( 1.000000000000000082E-05 ), #7, 'distance_accuracy_value', 'NONE');
#7 =( LENGTH_UNIT ( ) NAMED_UNIT ( * ) SI_UNIT ( .MILLI., .METRE. ) );
#8 = APPROVAL_ROLE ( '' ) ;
#9 = CARTESIAN_POINT ( 'NONE',  ( -13.00000000000000178, 0.000000000000000000, 8.000000000000000000 ) ) ;
#10 = APPROVAL_STATUS ( 'not_yet_approved' ) ;
#11 = EDGE_CURVE ( 'NONE', #93, #90, #31, .T. ) ;
#12 = VERTEX_POINT ( 'NONE', #147 ) ;
#13 = AXIS2_PLACEMENT_3D ( 'NONE', #87, #27, #35 ) ;
#14 = EDGE_CURVE ( 'NONE', #90, #43, #213, .T. ) ;
#15 = EDGE_CURVE ( 'NONE', #90, #93, #88, .T. ) ;
#16 = DIRECTION ( 'NONE',  ( -1.000000000000000000, 0.000000000000000000, 0.000000000000000000 ) ) ;
#17 = CARTESIAN_POINT ( 'NONE',  ( 10.00000000000000000, 1.224646799147353256E-15, 630.0000000000000000 ) ) ;
#18 = CYLINDRICAL_SURFACE ( 'NONE', #229, 13.00000000000000178 ) ;
#19 = APPLICATION_PROTOCOL_DEFINITION ( 'international standard', 'config_control_design', 1994, #233 ) ;
#20 = CARTESIAN_POINT ( 'NONE',  ( 0.000000000000000000, 0.000000000000000000, 8.000000000000000000 ) ) ;
#21 = CIRCLE ( 'NONE', #214, 10.00000000000000000 ) ;
#22 = DIRECTION ( 'NONE',  ( -0.000000000000000000, -0.000000000000000000, -1.000000000000000000 ) ) ;
#23 = FACE_OUTER_BOUND ( 'NONE', #172, .T. ) ;
#24 = APPROVAL_ROLE ( '' ) ;
#25 =( NAMED_UNIT ( * ) SI_UNIT ( $, .STERADIAN. ) SOLID_ANGLE_UNIT ( ) );
#26 = CLOSED_SHELL ( 'NONE', ( #72, #116, #110, #201, #158, #212, #243 ) ) ;
#27 = DIRECTION ( 'NONE',  ( 0.000000000000000000, 0.000000000000000000, 1.000000000000000000 ) ) ;
#28 = DIRECTION ( 'NONE',  ( 0.000000000000000000, 0.000000000000000000, 1.000000000000000000 ) ) ;
#29 = PERSON_AND_ORGANIZATION ( #65, #97 ) ;
#30 = APPROVAL ( #148, 'NEURÈENÝ' ) ;
#31 = CIRCLE ( 'NONE', #218, 13.00000000000000178 ) ;
#32 = DIRECTION ( 'NONE',  ( -0.000000000000000000, -0.000000000000000000, -1.000000000000000000 ) ) ;
#33 = DATE_AND_TIME ( #84, #188 ) ;
#34 = VERTEX_POINT ( 'NONE', #228 ) ;
#35 = DIRECTION ( 'NONE',  ( 1.000000000000000000, 0.000000000000000000, -0.000000000000000000 ) ) ;
#36 = DIRECTION ( 'NONE',  ( -1.000000000000000000, 0.000000000000000000, 0.000000000000000000 ) ) ;
#37 = DIRECTION ( 'NONE',  ( 1.000000000000000000, 0.000000000000000000, 0.000000000000000000 ) ) ;
#38 = DIRECTION ( 'NONE',  ( 0.000000000000000000, 0.000000000000000000, 1.000000000000000000 ) ) ;
#39 = COORDINATED_UNIVERSAL_TIME_OFFSET ( 1, 0, .AHEAD. ) ;
#40 = LINE ( 'NONE', #105, #109 ) ;
#41 = ORIENTED_EDGE ( 'NONE', *, *, #134, .F. ) ;
#42 = MECHANICAL_CONTEXT ( 'NONE', #78, 'mechanical' ) ;
#43 = VERTEX_POINT ( 'NONE', #46 ) ;
#44 = AXIS2_PLACEMENT_3D ( 'NONE', #223, #111, #187 ) ;
#45 = CALENDAR_DATE ( 2023, 13, 2 ) ;
#46 = CARTESIAN_POINT ( 'NONE',  ( 13.00000000000000178, 1.592040838891559293E-15, 0.000000000000000000 ) ) ;
#47 = ORIENTED_EDGE ( 'NONE', *, *, #196, .F. ) ;
#48 = CC_DESIGN_PERSON_AND_ORGANIZATION_ASSIGNMENT ( #152, #52, ( #142 ) ) ;
#49 = CC_DESIGN_APPROVAL ( #85, ( #142 ) ) ;
#50 = DIRECTION ( 'NONE',  ( 1.000000000000000000, 0.000000000000000000, 0.000000000000000000 ) ) ;
#51 = PRODUCT_DEFINITION ( 'NEZNÁMÝ', '', #142, #100 ) ;
#52 = PERSON_AND_ORGANIZATION_ROLE ( 'design_supplier' ) ;
#53 = CALENDAR_DATE ( 2023, 13, 2 ) ;
#54 = DATE_AND_TIME ( #98, #208 ) ;
#55 = DIRECTION ( 'NONE',  ( 0.000000000000000000, 0.000000000000000000, 1.000000000000000000 ) ) ;
#56 = AXIS2_PLACEMENT_3D ( 'NONE', #126, #199, #16 ) ;
#57 = PRODUCT_RELATED_PRODUCT_CATEGORY ( 'detail', '', ( #184 ) ) ;
#58 = DIRECTION ( 'NONE',  ( -0.000000000000000000, -0.000000000000000000, -1.000000000000000000 ) ) ;
#59 = APPROVAL_PERSON_ORGANIZATION ( #83, #85, #8 ) ;
#60 = EDGE_CURVE ( 'NONE', #93, #34, #129, .T. ) ;
#61 = EDGE_LOOP ( 'NONE', ( #179, #165 ) ) ;
#62 = DIRECTION ( 'NONE',  ( 1.000000000000000000, 0.000000000000000000, 0.000000000000000000 ) ) ;
#63 = PLANE ( 'NONE',  #249 ) ;
#64 = EDGE_LOOP ( 'NONE', ( #119, #67, #222, #161 ) ) ;
#65 = PERSON ( 'NEURÈENÝ', 'NEURÈENÝ', 'NEURÈENÝ', ('NEURÈENÝ'), ('NEURÈENÝ'), ('NEURÈENÝ') ) ;
#66 = AXIS2_PLACEMENT_3D ( 'NONE', #101, #224, #62 ) ;
#67 = ORIENTED_EDGE ( 'NONE', *, *, #173, .F. ) ;
#68 = CC_DESIGN_SECURITY_CLASSIFICATION ( #112, ( #142 ) ) ;
#69 = CC_DESIGN_PERSON_AND_ORGANIZATION_ASSIGNMENT ( #151, #132, ( #142 ) ) ;
#70 = MANIFOLD_SOLID_BREP ( 'Pøidat vysunutím3', #26 ) ;
#71 = DIRECTION ( 'NONE',  ( 0.000000000000000000, 0.000000000000000000, 1.000000000000000000 ) ) ;
#72 = ADVANCED_FACE ( 'NONE', ( #3 ), #80, .T. ) ;
#73 = CARTESIAN_POINT ( 'NONE',  ( 0.000000000000000000, 0.000000000000000000, 630.0000000000000000 ) ) ;
#74 = DATE_TIME_ROLE ( 'creation_date' ) ;
#75 = EDGE_LOOP ( 'NONE', ( #198, #178 ) ) ;
#76 = CARTESIAN_POINT ( 'NONE',  ( -10.00000000000000000, 0.000000000000000000, 630.0000000000000000 ) ) ;
#77 = DIRECTION ( 'NONE',  ( 1.000000000000000000, 0.000000000000000000, 0.000000000000000000 ) ) ;
#78 = APPLICATION_CONTEXT ( 'configuration controlled 3d designs of mechanical parts and assemblies' ) ;
#79 = CARTESIAN_POINT ( 'NONE',  ( 0.000000000000000000, 0.000000000000000000, 0.000000000000000000 ) ) ;
#80 = CYLINDRICAL_SURFACE ( 'NONE', #190, 10.00000000000000000 ) ;
#81 = DIRECTION ( 'NONE',  ( -1.000000000000000000, 0.000000000000000000, 0.000000000000000000 ) ) ;
#82 = APPROVAL_STATUS ( 'not_yet_approved' ) ;
#83 = PERSON_AND_ORGANIZATION ( #65, #97 ) ;
#84 = CALENDAR_DATE ( 2023, 13, 2 ) ;
#85 = APPROVAL ( #10, 'NEURÈENÝ' ) ;
#86 = PERSON_AND_ORGANIZATION ( #65, #97 ) ;
#87 = CARTESIAN_POINT ( 'NONE',  ( 0.000000000000000000, 0.000000000000000000, 0.000000000000000000 ) ) ;
#88 = CIRCLE ( 'NONE', #239, 13.00000000000000178 ) ;
#89 = DIRECTION ( 'NONE',  ( 1.000000000000000000, 0.000000000000000000, 0.000000000000000000 ) ) ;
#90 = VERTEX_POINT ( 'NONE', #241 ) ;
#91 = APPROVAL_DATE_TIME ( #54, #194 ) ;
#92 = CC_DESIGN_APPROVAL ( #30, ( #112 ) ) ;
#93 = VERTEX_POINT ( 'NONE', #1 ) ;
#94 = LOCAL_TIME ( 8, 53, 24.00000000000000000, #235 ) ;
#95 = AXIS2_PLACEMENT_3D ( 'NONE', #102, #38, #154 ) ;
#96 = EDGE_LOOP ( 'NONE', ( #245, #99, #225, #123 ) ) ;
#97 = ORGANIZATION ( 'NEURÈENÝ', 'NEURÈENÝ', '' ) ;
#98 = CALENDAR_DATE ( 2023, 13, 2 ) ;
#99 = ORIENTED_EDGE ( 'NONE', *, *, #14, .T. ) ;
#100 = DESIGN_CONTEXT ( 'detailed design', #233, 'design' ) ;
#101 = CARTESIAN_POINT ( 'NONE',  ( 0.000000000000000000, 0.000000000000000000, 0.000000000000000000 ) ) ;
#102 = CARTESIAN_POINT ( 'NONE',  ( 0.000000000000000000, 0.000000000000000000, 8.000000000000000000 ) ) ;
#103 = PRODUCT_DEFINITION_SHAPE ( 'NONE', 'NONE',  #51 ) ;
#104 = CC_DESIGN_PERSON_AND_ORGANIZATION_ASSIGNMENT ( #86, #168, ( #51 ) ) ;
#105 = CARTESIAN_POINT ( 'NONE',  ( 10.00000000000000000, 1.224646799147353256E-15, 630.0000000000000000 ) ) ;
#106 = SECURITY_CLASSIFICATION_LEVEL ( 'unclassified' ) ;
#107 = DIRECTION ( 'NONE',  ( 0.000000000000000000, 0.000000000000000000, 1.000000000000000000 ) ) ;
#108 = CARTESIAN_POINT ( 'NONE',  ( 0.000000000000000000, 0.000000000000000000, 8.000000000000000000 ) ) ;
#109 = VECTOR ( 'NONE', #135, 1000.000000000000000 ) ;
#110 = ADVANCED_FACE ( 'NONE', ( #23 ), #18, .T. ) ;
#111 = DIRECTION ( 'NONE',  ( 0.000000000000000000, 0.000000000000000000, 1.000000000000000000 ) ) ;
#112 = SECURITY_CLASSIFICATION ( '', '', #106 ) ;
#113 = COORDINATED_UNIVERSAL_TIME_OFFSET ( 1, 0, .AHEAD. ) ;
#114 = ORIENTED_EDGE ( 'NONE', *, *, #232, .T. ) ;
#115 = CIRCLE ( 'NONE', #44, 10.00000000000000000 ) ;
#116 = ADVANCED_FACE ( 'NONE', ( #221 ), #170, .T. ) ;
#117 = ORIENTED_EDGE ( 'NONE', *, *, #60, .T. ) ;
#118 = LOCAL_TIME ( 8, 53, 24.00000000000000000, #113 ) ;
#119 = ORIENTED_EDGE ( 'NONE', *, *, #238, .F. ) ;
#120 = AXIS2_PLACEMENT_3D ( 'NONE', #204, #22, #81 ) ;
#121 = ORIENTED_EDGE ( 'NONE', *, *, #173, .T. ) ;
#122 = APPROVAL_ROLE ( '' ) ;
#123 = ORIENTED_EDGE ( 'NONE', *, *, #60, .F. ) ;
#124 = CIRCLE ( 'NONE', #66, 13.00000000000000178 ) ;
#125 = COORDINATED_UNIVERSAL_TIME_OFFSET ( 1, 0, .AHEAD. ) ;
#126 = CARTESIAN_POINT ( 'NONE',  ( 0.000000000000000000, 0.000000000000000000, 8.000000000000000000 ) ) ;
#127 = EDGE_CURVE ( 'NONE', #43, #34, #124, .T. ) ;
#128 = DATE_TIME_ROLE ( 'classification_date' ) ;
#129 = LINE ( 'NONE', #9, #153 ) ;
#130 = FACE_BOUND ( 'NONE', #159, .T. ) ;
#131 = FACE_OUTER_BOUND ( 'NONE', #253, .T. ) ;
#132 = PERSON_AND_ORGANIZATION_ROLE ( 'creator' ) ;
#133 = PLANE ( 'NONE',  #140 ) ;
#134 = EDGE_CURVE ( 'NONE', #141, #248, #242, .T. ) ;
#135 = DIRECTION ( 'NONE',  ( -0.000000000000000000, -0.000000000000000000, -1.000000000000000000 ) ) ;
#136 = APPROVAL_DATE_TIME ( #210, #85 ) ;
#137 = ORIENTED_EDGE ( 'NONE', *, *, #238, .T. ) ;
#138 = FACE_OUTER_BOUND ( 'NONE', #61, .T. ) ;
#139 = CARTESIAN_POINT ( 'NONE',  ( 0.000000000000000000, 0.000000000000000000, 8.000000000000000000 ) ) ;
#140 = AXIS2_PLACEMENT_3D ( 'NONE', #139, #28, #175 ) ;
#141 = VERTEX_POINT ( 'NONE', #76 ) ;
#142 = PRODUCT_DEFINITION_FORMATION_WITH_SPECIFIED_SOURCE ( 'LIBOVOLNÝ', '', #184, .NOT_KNOWN. ) ;
#143 = EDGE_CURVE ( 'NONE', #193, #141, #115, .T. ) ;
#144 = CYLINDRICAL_SURFACE ( 'NONE', #120, 10.00000000000000000 ) ;
#145 = APPROVAL_PERSON_ORGANIZATION ( #186, #194, #24 ) ;
#146 = CARTESIAN_POINT ( 'NONE',  ( 0.000000000000000000, 0.000000000000000000, 8.000000000000000000 ) ) ;
#147 = CARTESIAN_POINT ( 'NONE',  ( 10.00000000000000000, 1.224646799147353256E-15, 8.000000000000000000 ) ) ;
#148 = APPROVAL_STATUS ( 'not_yet_approved' ) ;
#149 = DIRECTION ( 'NONE',  ( 0.000000000000000000, 0.000000000000000000, 1.000000000000000000 ) ) ;
#150 = DIRECTION ( 'NONE',  ( 1.000000000000000000, 0.000000000000000000, 0.000000000000000000 ) ) ;
#151 = PERSON_AND_ORGANIZATION ( #65, #97 ) ;
#152 = PERSON_AND_ORGANIZATION ( #65, #97 ) ;
#153 = VECTOR ( 'NONE', #183, 1000.000000000000000 ) ;
#154 = DIRECTION ( 'NONE',  ( 1.000000000000000000, 0.000000000000000000, 0.000000000000000000 ) ) ;
#155 = DIRECTION ( 'NONE',  ( -1.000000000000000000, 0.000000000000000000, 0.000000000000000000 ) ) ;
#156 = CARTESIAN_POINT ( 'NONE',  ( -10.00000000000000000, 0.000000000000000000, 8.000000000000000000 ) ) ;
#157 = ORIENTED_EDGE ( 'NONE', *, *, #180, .T. ) ;
#158 = ADVANCED_FACE ( 'NONE', ( #138 ), #189, .F. ) ;
#159 = EDGE_LOOP ( 'NONE', ( #47, #247 ) ) ;
#160 = CC_DESIGN_DATE_AND_TIME_ASSIGNMENT ( #252, #74, ( #51 ) ) ;
#161 = ORIENTED_EDGE ( 'NONE', *, *, #196, .T. ) ;
#162 = ORIENTED_EDGE ( 'NONE', *, *, #143, .F. ) ;
#163 = CC_DESIGN_PERSON_AND_ORGANIZATION_ASSIGNMENT ( #29, #192, ( #184 ) ) ;
#164 = CC_DESIGN_APPROVAL ( #194, ( #51 ) ) ;
#165 = ORIENTED_EDGE ( 'NONE', *, *, #127, .F. ) ;
#166 = CARTESIAN_POINT ( 'NONE',  ( 0.000000000000000000, 0.000000000000000000, 630.0000000000000000 ) ) ;
#167 = DIRECTION ( 'NONE',  ( 0.000000000000000000, 0.000000000000000000, 1.000000000000000000 ) ) ;
#168 = PERSON_AND_ORGANIZATION_ROLE ( 'creator' ) ;
#169 = DIRECTION ( 'NONE',  ( 0.000000000000000000, 0.000000000000000000, 1.000000000000000000 ) ) ;
#170 = CYLINDRICAL_SURFACE ( 'NONE', #56, 13.00000000000000178 ) ;
#171 = DIRECTION ( 'NONE',  ( 1.000000000000000000, 0.000000000000000000, -0.000000000000000000 ) ) ;
#172 = EDGE_LOOP ( 'NONE', ( #230, #251, #117, #114 ) ) ;
#173 = EDGE_CURVE ( 'NONE', #141, #193, #21, .T. ) ;
#174 = AXIS2_PLACEMENT_3D ( 'NONE', #79, #167, #240 ) ;
#175 = DIRECTION ( 'NONE',  ( 1.000000000000000000, 0.000000000000000000, -0.000000000000000000 ) ) ;
#176 = AXIS2_PLACEMENT_3D ( 'NONE', #20, #55, #37 ) ;
#177 = CC_DESIGN_PERSON_AND_ORGANIZATION_ASSIGNMENT ( #182, #197, ( #112 ) ) ;
#178 = ORIENTED_EDGE ( 'NONE', *, *, #15, .T. ) ;
#179 = ORIENTED_EDGE ( 'NONE', *, *, #232, .F. ) ;
#180 = EDGE_CURVE ( 'NONE', #12, #248, #250, .T. ) ;
#181 = CARTESIAN_POINT ( 'NONE',  ( 0.000000000000000000, 0.000000000000000000, 8.000000000000000000 ) ) ;
#182 = PERSON_AND_ORGANIZATION ( #65, #97 ) ;
#183 = DIRECTION ( 'NONE',  ( -0.000000000000000000, -0.000000000000000000, -1.000000000000000000 ) ) ;
#184 = PRODUCT ( '171d', '171d', '', ( #42 ) ) ;
#185 = VECTOR ( 'NONE', #215, 1000.000000000000000 ) ;
#186 = PERSON_AND_ORGANIZATION ( #65, #97 ) ;
#187 = DIRECTION ( 'NONE',  ( 1.000000000000000000, 0.000000000000000000, 0.000000000000000000 ) ) ;
#188 = LOCAL_TIME ( 8, 53, 24.00000000000000000, #237 ) ;
#189 = PLANE ( 'NONE',  #13 ) ;
#190 = AXIS2_PLACEMENT_3D ( 'NONE', #166, #58, #36 ) ;
#191 = FACE_OUTER_BOUND ( 'NONE', #64, .T. ) ;
#192 = PERSON_AND_ORGANIZATION_ROLE ( 'design_owner' ) ;
#193 = VERTEX_POINT ( 'NONE', #17 ) ;
#194 = APPROVAL ( #82, 'NEURÈENÝ' ) ;
#195 = CARTESIAN_POINT ( 'NONE',  ( 13.00000000000000178, 1.592040838891559293E-15, 8.000000000000000000 ) ) ;
#196 = EDGE_CURVE ( 'NONE', #248, #12, #209, .T. ) ;
#197 = PERSON_AND_ORGANIZATION_ROLE ( 'classification_officer' ) ;
#198 = ORIENTED_EDGE ( 'NONE', *, *, #11, .T. ) ;
#199 = DIRECTION ( 'NONE',  ( -0.000000000000000000, -0.000000000000000000, -1.000000000000000000 ) ) ;
#200 = ADVANCED_BREP_SHAPE_REPRESENTATION ( '171d', ( #70, #244 ), #206 ) ;
#201 = ADVANCED_FACE ( 'NONE', ( #130, #220 ), #133, .T. ) ;
#202 = APPROVAL_PERSON_ORGANIZATION ( #2, #30, #122 ) ;
#203 = APPROVAL_DATE_TIME ( #33, #30 ) ;
#204 = CARTESIAN_POINT ( 'NONE',  ( 0.000000000000000000, 0.000000000000000000, 630.0000000000000000 ) ) ;
#205 = SHAPE_DEFINITION_REPRESENTATION ( #103, #200 ) ;
#206 =( GEOMETRIC_REPRESENTATION_CONTEXT ( 3 ) GLOBAL_UNCERTAINTY_ASSIGNED_CONTEXT ( ( #6 ) ) GLOBAL_UNIT_ASSIGNED_CONTEXT ( ( #7, #207, #25 ) ) REPRESENTATION_CONTEXT ( 'NONE', 'WORKASPACE' ) );
#207 =( NAMED_UNIT ( * ) PLANE_ANGLE_UNIT ( ) SI_UNIT ( $, .RADIAN. ) );
#208 = LOCAL_TIME ( 8, 53, 24.00000000000000000, #125 ) ;
#209 = CIRCLE ( 'NONE', #95, 10.00000000000000000 ) ;
#210 = DATE_AND_TIME ( #45, #118 ) ;
#211 = APPLICATION_PROTOCOL_DEFINITION ( 'international standard', 'config_control_design', 1994, #78 ) ;
#212 = ADVANCED_FACE ( 'NONE', ( #191 ), #144, .T. ) ;
#213 = LINE ( 'NONE', #195, #185 ) ;
#214 = AXIS2_PLACEMENT_3D ( 'NONE', #73, #169, #150 ) ;
#215 = DIRECTION ( 'NONE',  ( -0.000000000000000000, -0.000000000000000000, -1.000000000000000000 ) ) ;
#216 = EDGE_LOOP ( 'NONE', ( #162, #137, #157, #41 ) ) ;
#217 = CALENDAR_DATE ( 2023, 13, 2 ) ;
#218 = AXIS2_PLACEMENT_3D ( 'NONE', #146, #71, #50 ) ;
#219 = DATE_AND_TIME ( #217, #231 ) ;
#220 = FACE_OUTER_BOUND ( 'NONE', #75, .T. ) ;
#221 = FACE_OUTER_BOUND ( 'NONE', #96, .T. ) ;
#222 = ORIENTED_EDGE ( 'NONE', *, *, #134, .T. ) ;
#223 = CARTESIAN_POINT ( 'NONE',  ( 0.000000000000000000, 0.000000000000000000, 630.0000000000000000 ) ) ;
#224 = DIRECTION ( 'NONE',  ( 0.000000000000000000, 0.000000000000000000, 1.000000000000000000 ) ) ;
#225 = ORIENTED_EDGE ( 'NONE', *, *, #127, .T. ) ;
#226 = VECTOR ( 'NONE', #32, 1000.000000000000000 ) ;
#227 = CC_DESIGN_DATE_AND_TIME_ASSIGNMENT ( #219, #128, ( #112 ) ) ;
#228 = CARTESIAN_POINT ( 'NONE',  ( -13.00000000000000178, 0.000000000000000000, 0.000000000000000000 ) ) ;
#229 = AXIS2_PLACEMENT_3D ( 'NONE', #108, #5, #155 ) ;
#230 = ORIENTED_EDGE ( 'NONE', *, *, #14, .F. ) ;
#231 = LOCAL_TIME ( 8, 53, 24.00000000000000000, #39 ) ;
#232 = EDGE_CURVE ( 'NONE', #34, #43, #4, .T. ) ;
#233 = APPLICATION_CONTEXT ( 'configuration controlled 3d designs of mechanical parts and assemblies' ) ;
#234 = ORIENTED_EDGE ( 'NONE', *, *, #143, .T. ) ;
#235 = COORDINATED_UNIVERSAL_TIME_OFFSET ( 1, 0, .AHEAD. ) ;
#236 = CARTESIAN_POINT ( 'NONE',  ( 0.000000000000000000, 0.000000000000000000, 0.000000000000000000 ) ) ;
#237 = COORDINATED_UNIVERSAL_TIME_OFFSET ( 1, 0, .AHEAD. ) ;
#238 = EDGE_CURVE ( 'NONE', #193, #12, #40, .T. ) ;
#239 = AXIS2_PLACEMENT_3D ( 'NONE', #181, #255, #77 ) ;
#240 = DIRECTION ( 'NONE',  ( 1.000000000000000000, 0.000000000000000000, 0.000000000000000000 ) ) ;
#241 = CARTESIAN_POINT ( 'NONE',  ( 13.00000000000000178, 1.592040838891559293E-15, 8.000000000000000000 ) ) ;
#242 = LINE ( 'NONE', #254, #226 ) ;
#243 = ADVANCED_FACE ( 'NONE', ( #131 ), #63, .T. ) ;
#244 = AXIS2_PLACEMENT_3D ( 'NONE', #236, #149, #89 ) ;
#245 = ORIENTED_EDGE ( 'NONE', *, *, #15, .F. ) ;
#246 = CARTESIAN_POINT ( 'NONE',  ( 0.000000000000000000, 0.000000000000000000, 630.0000000000000000 ) ) ;
#247 = ORIENTED_EDGE ( 'NONE', *, *, #180, .F. ) ;
#248 = VERTEX_POINT ( 'NONE', #156 ) ;
#249 = AXIS2_PLACEMENT_3D ( 'NONE', #246, #107, #171 ) ;
#250 = CIRCLE ( 'NONE', #176, 10.00000000000000000 ) ;
#251 = ORIENTED_EDGE ( 'NONE', *, *, #11, .F. ) ;
#252 = DATE_AND_TIME ( #53, #94 ) ;
#253 = EDGE_LOOP ( 'NONE', ( #121, #234 ) ) ;
#254 = CARTESIAN_POINT ( 'NONE',  ( -10.00000000000000000, 0.000000000000000000, 630.0000000000000000 ) ) ;
#255 = DIRECTION ( 'NONE',  ( 0.000000000000000000, 0.000000000000000000, 1.000000000000000000 ) ) ;
ENDSEC;
END-ISO-10303-21;
