ISO-10303-21;
HEADER;
FILE_DESCRIPTION (( 'STEP AP203' ),
    '1' );
FILE_NAME ('eb2d.STEP',
    '2023-02-13T07:51:35',
    ( '' ),
    ( '' ),
    'SwSTEP 2.0',
    'SolidWorks 2019',
    '' );
FILE_SCHEMA (( 'CONFIG_CONTROL_DESIGN' ));
ENDSEC;

DATA;
#1 = COORDINATED_UNIVERSAL_TIME_OFFSET ( 1, 0, .AHEAD. ) ;
#2 = CYLINDRICAL_SURFACE ( 'NONE', #45, 16.00000000000000000 ) ;
#3 = DIRECTION ( 'NONE',  ( 1.000000000000000000, 0.000000000000000000, 0.000000000000000000 ) ) ;
#4 = COORDINATED_UNIVERSAL_TIME_OFFSET ( 1, 0, .AHEAD. ) ;
#5 = DIRECTION ( 'NONE',  ( 1.000000000000000000, 0.000000000000000000, 0.000000000000000000 ) ) ;
#6 = ORIENTED_EDGE ( 'NONE', *, *, #189, .T. ) ;
#7 = APPROVAL_PERSON_ORGANIZATION ( #223, #53, #93 ) ;
#8 = CARTESIAN_POINT ( 'NONE',  ( 12.50000000000000000, 1.530808498934191521E-15, 10.00000000000000000 ) ) ;
#9 = AXIS2_PLACEMENT_3D ( 'NONE', #52, #20, #103 ) ;
#10 = CC_DESIGN_SECURITY_CLASSIFICATION ( #170, ( #64 ) ) ;
#11 = AXIS2_PLACEMENT_3D ( 'NONE', #227, #40, #122 ) ;
#12 = ADVANCED_FACE ( 'NONE', ( #56, #254 ), #21, .T. ) ;
#13 = VERTEX_POINT ( 'NONE', #191 ) ;
#14 = AXIS2_PLACEMENT_3D ( 'NONE', #86, #51, #135 ) ;
#15 = CYLINDRICAL_SURFACE ( 'NONE', #246, 12.50000000000000000 ) ;
#16 = APPROVAL_DATE_TIME ( #69, #243 ) ;
#17 = APPLICATION_CONTEXT ( 'configuration controlled 3d designs of mechanical parts and assemblies' ) ;
#18 = CARTESIAN_POINT ( 'NONE',  ( 12.50000000000000000, 1.530808498934191521E-15, 500.0000000000000000 ) ) ;
#19 = EDGE_CURVE ( 'NONE', #242, #95, #74, .T. ) ;
#20 = DIRECTION ( 'NONE',  ( -0.000000000000000000, -0.000000000000000000, -1.000000000000000000 ) ) ;
#21 = PLANE ( 'NONE',  #163 ) ;
#22 = LINE ( 'NONE', #77, #67 ) ;
#23 = PERSON_AND_ORGANIZATION_ROLE ( 'classification_officer' ) ;
#24 = DIRECTION ( 'NONE',  ( -0.000000000000000000, -0.000000000000000000, -1.000000000000000000 ) ) ;
#25 = SHAPE_DEFINITION_REPRESENTATION ( #61, #66 ) ;
#26 = COORDINATED_UNIVERSAL_TIME_OFFSET ( 1, 0, .AHEAD. ) ;
#27 = LOCAL_TIME ( 8, 51, 35.00000000000000000, #1 ) ;
#28 = EDGE_CURVE ( 'NONE', #242, #238, #158, .T. ) ;
#29 = PRODUCT_RELATED_PRODUCT_CATEGORY ( 'detail', '', ( #200 ) ) ;
#30 = APPROVAL_ROLE ( '' ) ;
#31 = FACE_OUTER_BOUND ( 'NONE', #160, .T. ) ;
#32 = FACE_OUTER_BOUND ( 'NONE', #142, .T. ) ;
#33 = PERSON_AND_ORGANIZATION ( #198, #172 ) ;
#34 = DIRECTION ( 'NONE',  ( -0.000000000000000000, -0.000000000000000000, -1.000000000000000000 ) ) ;
#35 = DIRECTION ( 'NONE',  ( 1.000000000000000000, 0.000000000000000000, 0.000000000000000000 ) ) ;
#36 = CARTESIAN_POINT ( 'NONE',  ( 0.000000000000000000, 0.000000000000000000, 500.0000000000000000 ) ) ;
#37 = PERSON_AND_ORGANIZATION ( #198, #172 ) ;
#38 =( GEOMETRIC_REPRESENTATION_CONTEXT ( 3 ) GLOBAL_UNCERTAINTY_ASSIGNED_CONTEXT ( ( #151 ) ) GLOBAL_UNIT_ASSIGNED_CONTEXT ( ( #247, #229, #62 ) ) REPRESENTATION_CONTEXT ( 'NONE', 'WORKASPACE' ) );
#39 = DIRECTION ( 'NONE',  ( 0.000000000000000000, 0.000000000000000000, 1.000000000000000000 ) ) ;
#40 = DIRECTION ( 'NONE',  ( -0.000000000000000000, -0.000000000000000000, -1.000000000000000000 ) ) ;
#41 = CARTESIAN_POINT ( 'NONE',  ( -16.00000000000000000, 0.000000000000000000, 10.00000000000000000 ) ) ;
#42 = EDGE_CURVE ( 'NONE', #238, #242, #201, .T. ) ;
#43 = VERTEX_POINT ( 'NONE', #41 ) ;
#44 = CC_DESIGN_PERSON_AND_ORGANIZATION_ASSIGNMENT ( #199, #23, ( #170 ) ) ;
#45 = AXIS2_PLACEMENT_3D ( 'NONE', #195, #24, #134 ) ;
#46 = LINE ( 'NONE', #130, #89 ) ;
#47 = DIRECTION ( 'NONE',  ( 1.000000000000000000, 0.000000000000000000, 0.000000000000000000 ) ) ;
#48 = DIRECTION ( 'NONE',  ( 1.000000000000000000, 0.000000000000000000, -0.000000000000000000 ) ) ;
#49 = APPROVAL_STATUS ( 'not_yet_approved' ) ;
#50 = DATE_AND_TIME ( #250, #149 ) ;
#51 = DIRECTION ( 'NONE',  ( 0.000000000000000000, 0.000000000000000000, 1.000000000000000000 ) ) ;
#52 = CARTESIAN_POINT ( 'NONE',  ( 0.000000000000000000, 0.000000000000000000, 10.00000000000000000 ) ) ;
#53 = APPROVAL ( #58, 'NEURÈENÝ' ) ;
#54 = DIRECTION ( 'NONE',  ( 1.000000000000000000, 0.000000000000000000, 0.000000000000000000 ) ) ;
#55 = CARTESIAN_POINT ( 'NONE',  ( 16.00000000000000000, 1.959434878635765131E-15, 0.000000000000000000 ) ) ;
#56 = FACE_BOUND ( 'NONE', #125, .T. ) ;
#57 = PERSON_AND_ORGANIZATION_ROLE ( 'creator' ) ;
#58 = APPROVAL_STATUS ( 'not_yet_approved' ) ;
#59 = EDGE_CURVE ( 'NONE', #13, #95, #152, .T. ) ;
#60 = LOCAL_TIME ( 8, 51, 35.00000000000000000, #26 ) ;
#61 = PRODUCT_DEFINITION_SHAPE ( 'NONE', 'NONE',  #106 ) ;
#62 =( NAMED_UNIT ( * ) SI_UNIT ( $, .STERADIAN. ) SOLID_ANGLE_UNIT ( ) );
#63 = EDGE_LOOP ( 'NONE', ( #203, #94, #6, #97 ) ) ;
#64 = PRODUCT_DEFINITION_FORMATION_WITH_SPECIFIED_SOURCE ( 'LIBOVOLNÝ', '', #200, .NOT_KNOWN. ) ;
#65 = PERSON_AND_ORGANIZATION_ROLE ( 'creator' ) ;
#66 = ADVANCED_BREP_SHAPE_REPRESENTATION ( 'eb2d', ( #119, #132 ), #38 ) ;
#67 = VECTOR ( 'NONE', #171, 1000.000000000000000 ) ;
#68 = CARTESIAN_POINT ( 'NONE',  ( 0.000000000000000000, 0.000000000000000000, 500.0000000000000000 ) ) ;
#69 = DATE_AND_TIME ( #196, #27 ) ;
#70 = CARTESIAN_POINT ( 'NONE',  ( 0.000000000000000000, 0.000000000000000000, 10.00000000000000000 ) ) ;
#71 = PERSON_AND_ORGANIZATION_ROLE ( 'design_supplier' ) ;
#72 = LOCAL_TIME ( 8, 51, 35.00000000000000000, #4 ) ;
#73 = CARTESIAN_POINT ( 'NONE',  ( 0.000000000000000000, 0.000000000000000000, 10.00000000000000000 ) ) ;
#74 = LINE ( 'NONE', #18, #166 ) ;
#75 = CARTESIAN_POINT ( 'NONE',  ( 0.000000000000000000, 0.000000000000000000, 0.000000000000000000 ) ) ;
#76 = DIRECTION ( 'NONE',  ( 1.000000000000000000, 0.000000000000000000, 0.000000000000000000 ) ) ;
#77 = CARTESIAN_POINT ( 'NONE',  ( -16.00000000000000000, 0.000000000000000000, 10.00000000000000000 ) ) ;
#78 = ORIENTED_EDGE ( 'NONE', *, *, #168, .T. ) ;
#79 = CALENDAR_DATE ( 2023, 13, 2 ) ;
#80 = ORIENTED_EDGE ( 'NONE', *, *, #59, .T. ) ;
#81 = ORIENTED_EDGE ( 'NONE', *, *, #168, .F. ) ;
#82 = APPROVAL_PERSON_ORGANIZATION ( #221, #243, #108 ) ;
#83 = ORIENTED_EDGE ( 'NONE', *, *, #189, .F. ) ;
#84 = PERSON_AND_ORGANIZATION ( #198, #172 ) ;
#85 = DIRECTION ( 'NONE',  ( 1.000000000000000000, 0.000000000000000000, -0.000000000000000000 ) ) ;
#86 = CARTESIAN_POINT ( 'NONE',  ( 0.000000000000000000, 0.000000000000000000, 500.0000000000000000 ) ) ;
#87 = ADVANCED_FACE ( 'NONE', ( #157 ), #230, .T. ) ;
#88 = CARTESIAN_POINT ( 'NONE',  ( -16.00000000000000000, 0.000000000000000000, 0.000000000000000000 ) ) ;
#89 = VECTOR ( 'NONE', #253, 1000.000000000000000 ) ;
#90 = CARTESIAN_POINT ( 'NONE',  ( 0.000000000000000000, 0.000000000000000000, 0.000000000000000000 ) ) ;
#91 = CC_DESIGN_PERSON_AND_ORGANIZATION_ASSIGNMENT ( #33, #57, ( #64 ) ) ;
#92 = CIRCLE ( 'NONE', #111, 16.00000000000000000 ) ;
#93 = APPROVAL_ROLE ( '' ) ;
#94 = ORIENTED_EDGE ( 'NONE', *, *, #231, .F. ) ;
#95 = VERTEX_POINT ( 'NONE', #8 ) ;
#96 = EDGE_CURVE ( 'NONE', #95, #13, #239, .T. ) ;
#97 = ORIENTED_EDGE ( 'NONE', *, *, #228, .T. ) ;
#98 = AXIS2_PLACEMENT_3D ( 'NONE', #90, #167, #173 ) ;
#99 = ORIENTED_EDGE ( 'NONE', *, *, #42, .T. ) ;
#100 = ADVANCED_FACE ( 'NONE', ( #31 ), #15, .T. ) ;
#101 = LOCAL_TIME ( 8, 51, 35.00000000000000000, #164 ) ;
#102 = CC_DESIGN_APPROVAL ( #243, ( #170 ) ) ;
#103 = DIRECTION ( 'NONE',  ( -1.000000000000000000, 0.000000000000000000, 0.000000000000000000 ) ) ;
#104 = DIRECTION ( 'NONE',  ( 1.000000000000000000, 0.000000000000000000, 0.000000000000000000 ) ) ;
#105 = SECURITY_CLASSIFICATION_LEVEL ( 'unclassified' ) ;
#106 = PRODUCT_DEFINITION ( 'NEZNÁMÝ', '', #64, #217 ) ;
#107 = LINE ( 'NONE', #175, #146 ) ;
#108 = APPROVAL_ROLE ( '' ) ;
#109 = PLANE ( 'NONE',  #112 ) ;
#110 = DIRECTION ( 'NONE',  ( 0.000000000000000000, 0.000000000000000000, 1.000000000000000000 ) ) ;
#111 = AXIS2_PLACEMENT_3D ( 'NONE', #148, #237, #47 ) ;
#112 = AXIS2_PLACEMENT_3D ( 'NONE', #68, #193, #85 ) ;
#113 = CARTESIAN_POINT ( 'NONE',  ( 0.000000000000000000, 0.000000000000000000, 500.0000000000000000 ) ) ;
#114 = ADVANCED_FACE ( 'NONE', ( #240 ), #2, .T. ) ;
#115 = ORIENTED_EDGE ( 'NONE', *, *, #96, .T. ) ;
#116 = CC_DESIGN_APPROVAL ( #53, ( #106 ) ) ;
#117 = AXIS2_PLACEMENT_3D ( 'NONE', #124, #120, #5 ) ;
#118 = APPROVAL_DATE_TIME ( #154, #53 ) ;
#119 = MANIFOLD_SOLID_BREP ( 'Pøidat vysunutím3', #186 ) ;
#120 = DIRECTION ( 'NONE',  ( 0.000000000000000000, 0.000000000000000000, 1.000000000000000000 ) ) ;
#121 = ORIENTED_EDGE ( 'NONE', *, *, #126, .F. ) ;
#122 = DIRECTION ( 'NONE',  ( -1.000000000000000000, 0.000000000000000000, 0.000000000000000000 ) ) ;
#123 = ORIENTED_EDGE ( 'NONE', *, *, #59, .F. ) ;
#124 = CARTESIAN_POINT ( 'NONE',  ( 0.000000000000000000, 0.000000000000000000, 10.00000000000000000 ) ) ;
#125 = EDGE_LOOP ( 'NONE', ( #123, #211 ) ) ;
#126 = EDGE_CURVE ( 'NONE', #178, #43, #127, .T. ) ;
#127 = CIRCLE ( 'NONE', #194, 16.00000000000000000 ) ;
#128 = ORIENTED_EDGE ( 'NONE', *, *, #19, .T. ) ;
#129 = ORIENTED_EDGE ( 'NONE', *, *, #126, .T. ) ;
#130 = CARTESIAN_POINT ( 'NONE',  ( 16.00000000000000000, 1.959434878635765131E-15, 10.00000000000000000 ) ) ;
#131 = CARTESIAN_POINT ( 'NONE',  ( 0.000000000000000000, 0.000000000000000000, 10.00000000000000000 ) ) ;
#132 = AXIS2_PLACEMENT_3D ( 'NONE', #176, #39, #3 ) ;
#133 = DATE_TIME_ROLE ( 'creation_date' ) ;
#134 = DIRECTION ( 'NONE',  ( -1.000000000000000000, 0.000000000000000000, 0.000000000000000000 ) ) ;
#135 = DIRECTION ( 'NONE',  ( 1.000000000000000000, 0.000000000000000000, 0.000000000000000000 ) ) ;
#136 = DIRECTION ( 'NONE',  ( 0.000000000000000000, 0.000000000000000000, 1.000000000000000000 ) ) ;
#137 = FACE_OUTER_BOUND ( 'NONE', #251, .T. ) ;
#138 = DIRECTION ( 'NONE',  ( 0.000000000000000000, 0.000000000000000000, 1.000000000000000000 ) ) ;
#139 = PERSON_AND_ORGANIZATION ( #198, #172 ) ;
#140 = ORIENTED_EDGE ( 'NONE', *, *, #42, .F. ) ;
#141 = CC_DESIGN_PERSON_AND_ORGANIZATION_ASSIGNMENT ( #139, #71, ( #64 ) ) ;
#142 = EDGE_LOOP ( 'NONE', ( #121, #245, #156, #83 ) ) ;
#143 = EDGE_LOOP ( 'NONE', ( #99, #188 ) ) ;
#144 = APPROVAL ( #232, 'NEURÈENÝ' ) ;
#145 = CC_DESIGN_APPROVAL ( #144, ( #64 ) ) ;
#146 = VECTOR ( 'NONE', #34, 1000.000000000000000 ) ;
#147 = ORIENTED_EDGE ( 'NONE', *, *, #228, .F. ) ;
#148 = CARTESIAN_POINT ( 'NONE',  ( 0.000000000000000000, 0.000000000000000000, 0.000000000000000000 ) ) ;
#149 = LOCAL_TIME ( 8, 51, 35.00000000000000000, #234 ) ;
#150 = DATE_TIME_ROLE ( 'classification_date' ) ;
#151 = UNCERTAINTY_MEASURE_WITH_UNIT (LENGTH_MEASURE( 1.000000000000000082E-05 ), #247, 'distance_accuracy_value', 'NONE');
#152 = CIRCLE ( 'NONE', #117, 12.50000000000000000 ) ;
#153 = PERSON_AND_ORGANIZATION_ROLE ( 'design_owner' ) ;
#154 = DATE_AND_TIME ( #79, #72 ) ;
#155 = ADVANCED_FACE ( 'NONE', ( #32 ), #241, .T. ) ;
#156 = ORIENTED_EDGE ( 'NONE', *, *, #206, .T. ) ;
#157 = FACE_OUTER_BOUND ( 'NONE', #248, .T. ) ;
#158 = CIRCLE ( 'NONE', #14, 12.50000000000000000 ) ;
#159 = CARTESIAN_POINT ( 'NONE',  ( 12.50000000000000000, 1.530808498934191521E-15, 500.0000000000000000 ) ) ;
#160 = EDGE_LOOP ( 'NONE', ( #187, #128, #115, #81 ) ) ;
#161 = CC_DESIGN_DATE_AND_TIME_ASSIGNMENT ( #207, #133, ( #106 ) ) ;
#162 = CALENDAR_DATE ( 2023, 13, 2 ) ;
#163 = AXIS2_PLACEMENT_3D ( 'NONE', #70, #138, #48 ) ;
#164 = COORDINATED_UNIVERSAL_TIME_OFFSET ( 1, 0, .AHEAD. ) ;
#165 = ADVANCED_FACE ( 'NONE', ( #215 ), #109, .T. ) ;
#166 = VECTOR ( 'NONE', #218, 1000.000000000000000 ) ;
#167 = DIRECTION ( 'NONE',  ( 0.000000000000000000, 0.000000000000000000, 1.000000000000000000 ) ) ;
#168 = EDGE_CURVE ( 'NONE', #238, #13, #107, .T. ) ;
#169 = DIRECTION ( 'NONE',  ( -1.000000000000000000, 0.000000000000000000, 0.000000000000000000 ) ) ;
#170 = SECURITY_CLASSIFICATION ( '', '', #105 ) ;
#171 = DIRECTION ( 'NONE',  ( -0.000000000000000000, -0.000000000000000000, -1.000000000000000000 ) ) ;
#172 = ORGANIZATION ( 'NEURÈENÝ', 'NEURÈENÝ', '' ) ;
#173 = DIRECTION ( 'NONE',  ( 1.000000000000000000, 0.000000000000000000, 0.000000000000000000 ) ) ;
#174 = DATE_AND_TIME ( #177, #60 ) ;
#175 = CARTESIAN_POINT ( 'NONE',  ( -12.50000000000000000, 0.000000000000000000, 500.0000000000000000 ) ) ;
#176 = CARTESIAN_POINT ( 'NONE',  ( 0.000000000000000000, 0.000000000000000000, 0.000000000000000000 ) ) ;
#177 = CALENDAR_DATE ( 2023, 13, 2 ) ;
#178 = VERTEX_POINT ( 'NONE', #192 ) ;
#179 = CC_DESIGN_DATE_AND_TIME_ASSIGNMENT ( #174, #150, ( #170 ) ) ;
#180 = EDGE_LOOP ( 'NONE', ( #184, #129 ) ) ;
#181 = CARTESIAN_POINT ( 'NONE',  ( 0.000000000000000000, 0.000000000000000000, 10.00000000000000000 ) ) ;
#182 = VERTEX_POINT ( 'NONE', #88 ) ;
#183 = AXIS2_PLACEMENT_3D ( 'NONE', #181, #233, #35 ) ;
#184 = ORIENTED_EDGE ( 'NONE', *, *, #231, .T. ) ;
#185 = CC_DESIGN_PERSON_AND_ORGANIZATION_ASSIGNMENT ( #84, #65, ( #106 ) ) ;
#186 = CLOSED_SHELL ( 'NONE', ( #100, #155, #114, #12, #208, #87, #165 ) ) ;
#187 = ORIENTED_EDGE ( 'NONE', *, *, #28, .F. ) ;
#188 = ORIENTED_EDGE ( 'NONE', *, *, #28, .T. ) ;
#189 = EDGE_CURVE ( 'NONE', #43, #182, #22, .T. ) ;
#190 = DIRECTION ( 'NONE',  ( -0.000000000000000000, -0.000000000000000000, -1.000000000000000000 ) ) ;
#191 = CARTESIAN_POINT ( 'NONE',  ( -12.50000000000000000, 0.000000000000000000, 10.00000000000000000 ) ) ;
#192 = CARTESIAN_POINT ( 'NONE',  ( 16.00000000000000000, 1.959434878635765131E-15, 10.00000000000000000 ) ) ;
#193 = DIRECTION ( 'NONE',  ( 0.000000000000000000, 0.000000000000000000, 1.000000000000000000 ) ) ;
#194 = AXIS2_PLACEMENT_3D ( 'NONE', #73, #136, #54 ) ;
#195 = CARTESIAN_POINT ( 'NONE',  ( 0.000000000000000000, 0.000000000000000000, 10.00000000000000000 ) ) ;
#196 = CALENDAR_DATE ( 2023, 13, 2 ) ;
#197 = CARTESIAN_POINT ( 'NONE',  ( -12.50000000000000000, 0.000000000000000000, 500.0000000000000000 ) ) ;
#198 = PERSON ( 'NEURÈENÝ', 'NEURÈENÝ', 'NEURÈENÝ', ('NEURÈENÝ'), ('NEURÈENÝ'), ('NEURÈENÝ') ) ;
#199 = PERSON_AND_ORGANIZATION ( #198, #172 ) ;
#200 = PRODUCT ( 'eb2d', 'eb2d', '', ( #205 ) ) ;
#201 = CIRCLE ( 'NONE', #209, 12.50000000000000000 ) ;
#202 = ORIENTED_EDGE ( 'NONE', *, *, #206, .F. ) ;
#203 = ORIENTED_EDGE ( 'NONE', *, *, #222, .F. ) ;
#204 = ORIENTED_EDGE ( 'NONE', *, *, #19, .F. ) ;
#205 = MECHANICAL_CONTEXT ( 'NONE', #17, 'mechanical' ) ;
#206 = EDGE_CURVE ( 'NONE', #235, #182, #220, .T. ) ;
#207 = DATE_AND_TIME ( #162, #101 ) ;
#208 = ADVANCED_FACE ( 'NONE', ( #137 ), #255, .F. ) ;
#209 = AXIS2_PLACEMENT_3D ( 'NONE', #36, #110, #76 ) ;
#210 = CC_DESIGN_PERSON_AND_ORGANIZATION_ASSIGNMENT ( #37, #153, ( #200 ) ) ;
#211 = ORIENTED_EDGE ( 'NONE', *, *, #96, .F. ) ;
#212 = AXIS2_PLACEMENT_3D ( 'NONE', #131, #213, #104 ) ;
#213 = DIRECTION ( 'NONE',  ( 0.000000000000000000, 0.000000000000000000, 1.000000000000000000 ) ) ;
#214 = APPROVAL_DATE_TIME ( #50, #144 ) ;
#215 = FACE_OUTER_BOUND ( 'NONE', #143, .T. ) ;
#216 = APPLICATION_CONTEXT ( 'configuration controlled 3d designs of mechanical parts and assemblies' ) ;
#217 = DESIGN_CONTEXT ( 'detailed design', #216, 'design' ) ;
#218 = DIRECTION ( 'NONE',  ( -0.000000000000000000, -0.000000000000000000, -1.000000000000000000 ) ) ;
#219 = DIRECTION ( 'NONE',  ( 1.000000000000000000, 0.000000000000000000, -0.000000000000000000 ) ) ;
#220 = CIRCLE ( 'NONE', #98, 16.00000000000000000 ) ;
#221 = PERSON_AND_ORGANIZATION ( #198, #172 ) ;
#222 = EDGE_CURVE ( 'NONE', #178, #235, #46, .T. ) ;
#223 = PERSON_AND_ORGANIZATION ( #198, #172 ) ;
#224 = APPROVAL_PERSON_ORGANIZATION ( #249, #144, #30 ) ;
#225 = CIRCLE ( 'NONE', #212, 16.00000000000000000 ) ;
#226 = APPLICATION_PROTOCOL_DEFINITION ( 'international standard', 'config_control_design', 1994, #17 ) ;
#227 = CARTESIAN_POINT ( 'NONE',  ( 0.000000000000000000, 0.000000000000000000, 500.0000000000000000 ) ) ;
#228 = EDGE_CURVE ( 'NONE', #182, #235, #92, .T. ) ;
#229 =( NAMED_UNIT ( * ) PLANE_ANGLE_UNIT ( ) SI_UNIT ( $, .RADIAN. ) );
#230 = CYLINDRICAL_SURFACE ( 'NONE', #11, 12.50000000000000000 ) ;
#231 = EDGE_CURVE ( 'NONE', #43, #178, #225, .T. ) ;
#232 = APPROVAL_STATUS ( 'not_yet_approved' ) ;
#233 = DIRECTION ( 'NONE',  ( 0.000000000000000000, 0.000000000000000000, 1.000000000000000000 ) ) ;
#234 = COORDINATED_UNIVERSAL_TIME_OFFSET ( 1, 0, .AHEAD. ) ;
#235 = VERTEX_POINT ( 'NONE', #55 ) ;
#236 = DIRECTION ( 'NONE',  ( 0.000000000000000000, 0.000000000000000000, 1.000000000000000000 ) ) ;
#237 = DIRECTION ( 'NONE',  ( 0.000000000000000000, 0.000000000000000000, 1.000000000000000000 ) ) ;
#238 = VERTEX_POINT ( 'NONE', #197 ) ;
#239 = CIRCLE ( 'NONE', #183, 12.50000000000000000 ) ;
#240 = FACE_OUTER_BOUND ( 'NONE', #63, .T. ) ;
#241 = CYLINDRICAL_SURFACE ( 'NONE', #9, 16.00000000000000000 ) ;
#242 = VERTEX_POINT ( 'NONE', #159 ) ;
#243 = APPROVAL ( #49, 'NEURÈENÝ' ) ;
#244 = APPLICATION_PROTOCOL_DEFINITION ( 'international standard', 'config_control_design', 1994, #216 ) ;
#245 = ORIENTED_EDGE ( 'NONE', *, *, #222, .T. ) ;
#246 = AXIS2_PLACEMENT_3D ( 'NONE', #113, #190, #169 ) ;
#247 =( LENGTH_UNIT ( ) NAMED_UNIT ( * ) SI_UNIT ( .MILLI., .METRE. ) );
#248 = EDGE_LOOP ( 'NONE', ( #204, #140, #78, #80 ) ) ;
#249 = PERSON_AND_ORGANIZATION ( #198, #172 ) ;
#250 = CALENDAR_DATE ( 2023, 13, 2 ) ;
#251 = EDGE_LOOP ( 'NONE', ( #147, #202 ) ) ;
#252 = AXIS2_PLACEMENT_3D ( 'NONE', #75, #236, #219 ) ;
#253 = DIRECTION ( 'NONE',  ( -0.000000000000000000, -0.000000000000000000, -1.000000000000000000 ) ) ;
#254 = FACE_OUTER_BOUND ( 'NONE', #180, .T. ) ;
#255 = PLANE ( 'NONE',  #252 ) ;
ENDSEC;
END-ISO-10303-21;
