ISO-10303-21;
HEADER;
FILE_DESCRIPTION (( 'STEP AP203' ),
    '1' );
FILE_NAME ('5291.STEP',
    '2023-02-13T07:55:22',
    ( '' ),
    ( '' ),
    'SwSTEP 2.0',
    'SolidWorks 2019',
    '' );
FILE_SCHEMA (( 'CONFIG_CONTROL_DESIGN' ));
ENDSEC;

DATA;
#1 = DIRECTION ( 'NONE',  ( 0.000000000000000000, 0.000000000000000000, 1.000000000000000000 ) ) ;
#2 = CARTESIAN_POINT ( 'NONE',  ( 0.000000000000000000, 0.000000000000000000, 0.000000000000000000 ) ) ;
#3 = CC_DESIGN_PERSON_AND_ORGANIZATION_ASSIGNMENT ( #178, #72, ( #175 ) ) ;
#4 =( NAMED_UNIT ( * ) PLANE_ANGLE_UNIT ( ) SI_UNIT ( $, .RADIAN. ) );
#5 = CALENDAR_DATE ( 2023, 13, 2 ) ;
#6 = FACE_OUTER_BOUND ( 'NONE', #56, .T. ) ;
#7 = COORDINATED_UNIVERSAL_TIME_OFFSET ( 1, 0, .AHEAD. ) ;
#8 = CIRCLE ( 'NONE', #59, 12.00000000000000178 ) ;
#9 = SECURITY_CLASSIFICATION_LEVEL ( 'unclassified' ) ;
#10 = COORDINATED_UNIVERSAL_TIME_OFFSET ( 1, 0, .AHEAD. ) ;
#11 = EDGE_CURVE ( 'NONE', #14, #116, #82, .T. ) ;
#12 = VECTOR ( 'NONE', #42, 1000.000000000000000 ) ;
#13 = ORIENTED_EDGE ( 'NONE', *, *, #37, .T. ) ;
#14 = VERTEX_POINT ( 'NONE', #142 ) ;
#15 = AXIS2_PLACEMENT_3D ( 'NONE', #198, #40, #67 ) ;
#16 = LINE ( 'NONE', #58, #125 ) ;
#17 = CARTESIAN_POINT ( 'NONE',  ( -12.00000000000000178, 0.000000000000000000, 7.000000000000000000 ) ) ;
#18 = CARTESIAN_POINT ( 'NONE',  ( -12.00000000000000178, 0.000000000000000000, 7.000000000000000000 ) ) ;
#19 = CC_DESIGN_APPROVAL ( #23, ( #137 ) ) ;
#20 = ORIENTED_EDGE ( 'NONE', *, *, #149, .F. ) ;
#21 = CARTESIAN_POINT ( 'NONE',  ( 0.000000000000000000, 0.000000000000000000, 7.000000000000000000 ) ) ;
#22 = DIRECTION ( 'NONE',  ( 0.000000000000000000, 0.000000000000000000, 1.000000000000000000 ) ) ;
#23 = APPROVAL ( #113, 'NEURÈENÝ' ) ;
#24 = AXIS2_PLACEMENT_3D ( 'NONE', #36, #162, #85 ) ;
#25 = PERSON_AND_ORGANIZATION ( #32, #155 ) ;
#26 = ADVANCED_FACE ( 'NONE', ( #235 ), #238, .T. ) ;
#27 = CARTESIAN_POINT ( 'NONE',  ( 0.000000000000000000, 0.000000000000000000, 0.000000000000000000 ) ) ;
#28 = COORDINATED_UNIVERSAL_TIME_OFFSET ( 1, 0, .AHEAD. ) ;
#29 = DATE_AND_TIME ( #5, #247 ) ;
#30 = CYLINDRICAL_SURFACE ( 'NONE', #71, 12.00000000000000178 ) ;
#31 = APPROVAL_DATE_TIME ( #240, #129 ) ;
#32 = PERSON ( 'NEURÈENÝ', 'NEURÈENÝ', 'NEURÈENÝ', ('NEURÈENÝ'), ('NEURÈENÝ'), ('NEURÈENÝ') ) ;
#33 = ORIENTED_EDGE ( 'NONE', *, *, #11, .T. ) ;
#34 = ORIENTED_EDGE ( 'NONE', *, *, #143, .F. ) ;
#35 = VERTEX_POINT ( 'NONE', #38 ) ;
#36 = CARTESIAN_POINT ( 'NONE',  ( 0.000000000000000000, 0.000000000000000000, 630.0000000000000000 ) ) ;
#37 = EDGE_CURVE ( 'NONE', #14, #123, #79, .T. ) ;
#38 = CARTESIAN_POINT ( 'NONE',  ( 9.000000000000000000, 1.102182119232617714E-15, 7.000000000000000000 ) ) ;
#39 = VERTEX_POINT ( 'NONE', #164 ) ;
#40 = DIRECTION ( 'NONE',  ( -0.000000000000000000, -0.000000000000000000, -1.000000000000000000 ) ) ;
#41 =( GEOMETRIC_REPRESENTATION_CONTEXT ( 3 ) GLOBAL_UNCERTAINTY_ASSIGNED_CONTEXT ( ( #173 ) ) GLOBAL_UNIT_ASSIGNED_CONTEXT ( ( #97, #4, #68 ) ) REPRESENTATION_CONTEXT ( 'NONE', 'WORKASPACE' ) );
#42 = DIRECTION ( 'NONE',  ( -0.000000000000000000, -0.000000000000000000, -1.000000000000000000 ) ) ;
#43 = EDGE_CURVE ( 'NONE', #39, #254, #16, .T. ) ;
#44 = DIRECTION ( 'NONE',  ( 0.000000000000000000, 0.000000000000000000, 1.000000000000000000 ) ) ;
#45 = DIRECTION ( 'NONE',  ( -1.000000000000000000, 0.000000000000000000, 0.000000000000000000 ) ) ;
#46 = VECTOR ( 'NONE', #106, 1000.000000000000000 ) ;
#47 = ADVANCED_FACE ( 'NONE', ( #215, #144 ), #141, .T. ) ;
#48 = APPROVAL_DATE_TIME ( #220, #23 ) ;
#49 = PERSON_AND_ORGANIZATION ( #32, #155 ) ;
#50 = SHAPE_DEFINITION_REPRESENTATION ( #187, #230 ) ;
#51 = APPLICATION_CONTEXT ( 'configuration controlled 3d designs of mechanical parts and assemblies' ) ;
#52 = CC_DESIGN_PERSON_AND_ORGANIZATION_ASSIGNMENT ( #25, #150, ( #137 ) ) ;
#53 = ORIENTED_EDGE ( 'NONE', *, *, #169, .T. ) ;
#54 = ORIENTED_EDGE ( 'NONE', *, *, #43, .F. ) ;
#55 = LOCAL_TIME ( 8, 55, 22.00000000000000000, #28 ) ;
#56 = EDGE_LOOP ( 'NONE', ( #102, #228 ) ) ;
#57 = APPLICATION_CONTEXT ( 'configuration controlled 3d designs of mechanical parts and assemblies' ) ;
#58 = CARTESIAN_POINT ( 'NONE',  ( -9.000000000000000000, 0.000000000000000000, 630.0000000000000000 ) ) ;
#59 = AXIS2_PLACEMENT_3D ( 'NONE', #2, #22, #107 ) ;
#60 = DIRECTION ( 'NONE',  ( 0.000000000000000000, 0.000000000000000000, 1.000000000000000000 ) ) ;
#61 = DIRECTION ( 'NONE',  ( 0.000000000000000000, 0.000000000000000000, 1.000000000000000000 ) ) ;
#62 = EDGE_CURVE ( 'NONE', #98, #39, #99, .T. ) ;
#63 = DIRECTION ( 'NONE',  ( 1.000000000000000000, 0.000000000000000000, 0.000000000000000000 ) ) ;
#64 = CIRCLE ( 'NONE', #229, 9.000000000000000000 ) ;
#65 = CC_DESIGN_APPROVAL ( #129, ( #175 ) ) ;
#66 = EDGE_LOOP ( 'NONE', ( #138, #121, #166, #54 ) ) ;
#67 = DIRECTION ( 'NONE',  ( -1.000000000000000000, 0.000000000000000000, 0.000000000000000000 ) ) ;
#68 =( NAMED_UNIT ( * ) SI_UNIT ( $, .STERADIAN. ) SOLID_ANGLE_UNIT ( ) );
#69 = CARTESIAN_POINT ( 'NONE',  ( -9.000000000000000000, 0.000000000000000000, 7.000000000000000000 ) ) ;
#70 = CC_DESIGN_PERSON_AND_ORGANIZATION_ASSIGNMENT ( #110, #154, ( #249 ) ) ;
#71 = AXIS2_PLACEMENT_3D ( 'NONE', #147, #219, #205 ) ;
#72 = PERSON_AND_ORGANIZATION_ROLE ( 'classification_officer' ) ;
#73 = PERSON_AND_ORGANIZATION_ROLE ( 'design_owner' ) ;
#74 = CALENDAR_DATE ( 2023, 13, 2 ) ;
#75 = CARTESIAN_POINT ( 'NONE',  ( -12.00000000000000178, 0.000000000000000000, 0.000000000000000000 ) ) ;
#76 = PERSON_AND_ORGANIZATION ( #32, #155 ) ;
#77 = DATE_TIME_ROLE ( 'creation_date' ) ;
#78 = ORIENTED_EDGE ( 'NONE', *, *, #179, .F. ) ;
#79 = CIRCLE ( 'NONE', #182, 12.00000000000000178 ) ;
#80 = ORIENTED_EDGE ( 'NONE', *, *, #62, .T. ) ;
#81 = PRODUCT_RELATED_PRODUCT_CATEGORY ( 'detail', '', ( #176 ) ) ;
#82 = LINE ( 'NONE', #252, #213 ) ;
#83 = DIRECTION ( 'NONE',  ( 1.000000000000000000, 0.000000000000000000, 0.000000000000000000 ) ) ;
#84 = CIRCLE ( 'NONE', #112, 9.000000000000000000 ) ;
#85 = DIRECTION ( 'NONE',  ( 1.000000000000000000, 0.000000000000000000, -0.000000000000000000 ) ) ;
#86 = LINE ( 'NONE', #17, #12 ) ;
#87 = DIRECTION ( 'NONE',  ( -1.000000000000000000, 0.000000000000000000, 0.000000000000000000 ) ) ;
#88 = AXIS2_PLACEMENT_3D ( 'NONE', #27, #225, #95 ) ;
#89 = CARTESIAN_POINT ( 'NONE',  ( 0.000000000000000000, 0.000000000000000000, 630.0000000000000000 ) ) ;
#90 = EDGE_CURVE ( 'NONE', #254, #35, #64, .T. ) ;
#91 = DATE_TIME_ROLE ( 'classification_date' ) ;
#92 = CYLINDRICAL_SURFACE ( 'NONE', #115, 9.000000000000000000 ) ;
#93 = LOCAL_TIME ( 8, 55, 22.00000000000000000, #7 ) ;
#94 = CC_DESIGN_SECURITY_CLASSIFICATION ( #175, ( #137 ) ) ;
#95 = DIRECTION ( 'NONE',  ( 1.000000000000000000, 0.000000000000000000, 0.000000000000000000 ) ) ;
#96 = COORDINATED_UNIVERSAL_TIME_OFFSET ( 1, 0, .AHEAD. ) ;
#97 =( LENGTH_UNIT ( ) NAMED_UNIT ( * ) SI_UNIT ( .MILLI., .METRE. ) );
#98 = VERTEX_POINT ( 'NONE', #168 ) ;
#99 = CIRCLE ( 'NONE', #233, 9.000000000000000000 ) ;
#100 = ORIENTED_EDGE ( 'NONE', *, *, #37, .F. ) ;
#101 = CIRCLE ( 'NONE', #130, 12.00000000000000178 ) ;
#102 = ORIENTED_EDGE ( 'NONE', *, *, #104, .F. ) ;
#103 = ORIENTED_EDGE ( 'NONE', *, *, #179, .T. ) ;
#104 = EDGE_CURVE ( 'NONE', #211, #116, #101, .T. ) ;
#105 = CARTESIAN_POINT ( 'NONE',  ( 0.000000000000000000, 0.000000000000000000, 630.0000000000000000 ) ) ;
#106 = DIRECTION ( 'NONE',  ( -0.000000000000000000, -0.000000000000000000, -1.000000000000000000 ) ) ;
#107 = DIRECTION ( 'NONE',  ( 1.000000000000000000, 0.000000000000000000, 0.000000000000000000 ) ) ;
#108 = APPROVAL_PERSON_ORGANIZATION ( #76, #129, #209 ) ;
#109 = APPROVAL_PERSON_ORGANIZATION ( #49, #165, #207 ) ;
#110 = PERSON_AND_ORGANIZATION ( #32, #155 ) ;
#111 = CALENDAR_DATE ( 2023, 13, 2 ) ;
#112 = AXIS2_PLACEMENT_3D ( 'NONE', #188, #44, #63 ) ;
#113 = APPROVAL_STATUS ( 'not_yet_approved' ) ;
#114 = DIRECTION ( 'NONE',  ( -0.000000000000000000, -0.000000000000000000, -1.000000000000000000 ) ) ;
#115 = AXIS2_PLACEMENT_3D ( 'NONE', #89, #114, #45 ) ;
#116 = VERTEX_POINT ( 'NONE', #218 ) ;
#117 = ORIENTED_EDGE ( 'NONE', *, *, #104, .T. ) ;
#118 = CC_DESIGN_PERSON_AND_ORGANIZATION_ASSIGNMENT ( #242, #73, ( #176 ) ) ;
#119 = AXIS2_PLACEMENT_3D ( 'NONE', #234, #61, #200 ) ;
#120 = CYLINDRICAL_SURFACE ( 'NONE', #15, 12.00000000000000178 ) ;
#121 = ORIENTED_EDGE ( 'NONE', *, *, #149, .T. ) ;
#122 = CARTESIAN_POINT ( 'NONE',  ( 9.000000000000000000, 1.102182119232617714E-15, 630.0000000000000000 ) ) ;
#123 = VERTEX_POINT ( 'NONE', #18 ) ;
#124 = LINE ( 'NONE', #122, #46 ) ;
#125 = VECTOR ( 'NONE', #185, 1000.000000000000000 ) ;
#126 = LOCAL_TIME ( 8, 55, 22.00000000000000000, #96 ) ;
#127 = CARTESIAN_POINT ( 'NONE',  ( 0.000000000000000000, 0.000000000000000000, 630.0000000000000000 ) ) ;
#128 = FACE_OUTER_BOUND ( 'NONE', #255, .T. ) ;
#129 = APPROVAL ( #248, 'NEURÈENÝ' ) ;
#130 = AXIS2_PLACEMENT_3D ( 'NONE', #216, #203, #83 ) ;
#131 = MECHANICAL_CONTEXT ( 'NONE', #51, 'mechanical' ) ;
#132 = DATE_AND_TIME ( #74, #93 ) ;
#133 = APPROVAL_STATUS ( 'not_yet_approved' ) ;
#134 = AXIS2_PLACEMENT_3D ( 'NONE', #177, #221, #152 ) ;
#135 = APPROVAL_ROLE ( '' ) ;
#136 = CALENDAR_DATE ( 2023, 13, 2 ) ;
#137 = PRODUCT_DEFINITION_FORMATION_WITH_SPECIFIED_SOURCE ( 'LIBOVOLNÝ', '', #176, .NOT_KNOWN. ) ;
#138 = ORIENTED_EDGE ( 'NONE', *, *, #62, .F. ) ;
#139 = ADVANCED_FACE ( 'NONE', ( #145 ), #120, .T. ) ;
#140 = CIRCLE ( 'NONE', #170, 12.00000000000000178 ) ;
#141 = PLANE ( 'NONE',  #119 ) ;
#142 = CARTESIAN_POINT ( 'NONE',  ( 12.00000000000000178, 1.469576158976824144E-15, 7.000000000000000000 ) ) ;
#143 = EDGE_CURVE ( 'NONE', #123, #211, #86, .T. ) ;
#144 = FACE_OUTER_BOUND ( 'NONE', #183, .T. ) ;
#145 = FACE_OUTER_BOUND ( 'NONE', #181, .T. ) ;
#146 = DIRECTION ( 'NONE',  ( 1.000000000000000000, 0.000000000000000000, 0.000000000000000000 ) ) ;
#147 = CARTESIAN_POINT ( 'NONE',  ( 0.000000000000000000, 0.000000000000000000, 7.000000000000000000 ) ) ;
#148 = AXIS2_PLACEMENT_3D ( 'NONE', #127, #204, #87 ) ;
#149 = EDGE_CURVE ( 'NONE', #98, #35, #124, .T. ) ;
#150 = PERSON_AND_ORGANIZATION_ROLE ( 'design_supplier' ) ;
#151 = APPLICATION_PROTOCOL_DEFINITION ( 'international standard', 'config_control_design', 1994, #57 ) ;
#152 = DIRECTION ( 'NONE',  ( 1.000000000000000000, 0.000000000000000000, -0.000000000000000000 ) ) ;
#153 = DESIGN_CONTEXT ( 'detailed design', #57, 'design' ) ;
#154 = PERSON_AND_ORGANIZATION_ROLE ( 'creator' ) ;
#155 = ORGANIZATION ( 'NEURÈENÝ', 'NEURÈENÝ', '' ) ;
#156 = COORDINATED_UNIVERSAL_TIME_OFFSET ( 1, 0, .AHEAD. ) ;
#157 = ORIENTED_EDGE ( 'NONE', *, *, #143, .T. ) ;
#158 = MANIFOLD_SOLID_BREP ( 'Pøidat vysunutím3', #186 ) ;
#159 = EDGE_CURVE ( 'NONE', #35, #254, #163, .T. ) ;
#160 = ORIENTED_EDGE ( 'NONE', *, *, #90, .T. ) ;
#161 = EDGE_LOOP ( 'NONE', ( #103, #80 ) ) ;
#162 = DIRECTION ( 'NONE',  ( 0.000000000000000000, 0.000000000000000000, 1.000000000000000000 ) ) ;
#163 = CIRCLE ( 'NONE', #195, 9.000000000000000000 ) ;
#164 = CARTESIAN_POINT ( 'NONE',  ( -9.000000000000000000, 0.000000000000000000, 630.0000000000000000 ) ) ;
#165 = APPROVAL ( #133, 'NEURÈENÝ' ) ;
#166 = ORIENTED_EDGE ( 'NONE', *, *, #159, .T. ) ;
#167 = DIRECTION ( 'NONE',  ( -0.000000000000000000, -0.000000000000000000, -1.000000000000000000 ) ) ;
#168 = CARTESIAN_POINT ( 'NONE',  ( 9.000000000000000000, 1.102182119232617714E-15, 630.0000000000000000 ) ) ;
#169 = EDGE_CURVE ( 'NONE', #116, #211, #8, .T. ) ;
#170 = AXIS2_PLACEMENT_3D ( 'NONE', #246, #174, #239 ) ;
#171 = FACE_OUTER_BOUND ( 'NONE', #210, .T. ) ;
#172 = APPLICATION_PROTOCOL_DEFINITION ( 'international standard', 'config_control_design', 1994, #51 ) ;
#173 = UNCERTAINTY_MEASURE_WITH_UNIT (LENGTH_MEASURE( 1.000000000000000082E-05 ), #97, 'distance_accuracy_value', 'NONE');
#174 = DIRECTION ( 'NONE',  ( 0.000000000000000000, 0.000000000000000000, 1.000000000000000000 ) ) ;
#175 = SECURITY_CLASSIFICATION ( '', '', #9 ) ;
#176 = PRODUCT ( '5291', '5291', '', ( #131 ) ) ;
#177 = CARTESIAN_POINT ( 'NONE',  ( 0.000000000000000000, 0.000000000000000000, 0.000000000000000000 ) ) ;
#178 = PERSON_AND_ORGANIZATION ( #32, #155 ) ;
#179 = EDGE_CURVE ( 'NONE', #39, #98, #84, .T. ) ;
#180 = APPROVAL_PERSON_ORGANIZATION ( #192, #23, #135 ) ;
#181 = EDGE_LOOP ( 'NONE', ( #197, #202, #157, #117 ) ) ;
#182 = AXIS2_PLACEMENT_3D ( 'NONE', #189, #232, #236 ) ;
#183 = EDGE_LOOP ( 'NONE', ( #226, #13 ) ) ;
#184 = DIRECTION ( 'NONE',  ( 1.000000000000000000, 0.000000000000000000, 0.000000000000000000 ) ) ;
#185 = DIRECTION ( 'NONE',  ( -0.000000000000000000, -0.000000000000000000, -1.000000000000000000 ) ) ;
#186 = CLOSED_SHELL ( 'NONE', ( #223, #208, #139, #47, #243, #190, #26 ) ) ;
#187 = PRODUCT_DEFINITION_SHAPE ( 'NONE', 'NONE',  #249 ) ;
#188 = CARTESIAN_POINT ( 'NONE',  ( 0.000000000000000000, 0.000000000000000000, 630.0000000000000000 ) ) ;
#189 = CARTESIAN_POINT ( 'NONE',  ( 0.000000000000000000, 0.000000000000000000, 7.000000000000000000 ) ) ;
#190 = ADVANCED_FACE ( 'NONE', ( #128 ), #217, .T. ) ;
#191 = DIRECTION ( 'NONE',  ( 1.000000000000000000, 0.000000000000000000, 0.000000000000000000 ) ) ;
#192 = PERSON_AND_ORGANIZATION ( #32, #155 ) ;
#193 = DATE_AND_TIME ( #111, #55 ) ;
#194 = PERSON_AND_ORGANIZATION_ROLE ( 'creator' ) ;
#195 = AXIS2_PLACEMENT_3D ( 'NONE', #21, #253, #146 ) ;
#196 = ORIENTED_EDGE ( 'NONE', *, *, #90, .F. ) ;
#197 = ORIENTED_EDGE ( 'NONE', *, *, #11, .F. ) ;
#198 = CARTESIAN_POINT ( 'NONE',  ( 0.000000000000000000, 0.000000000000000000, 7.000000000000000000 ) ) ;
#199 = ORIENTED_EDGE ( 'NONE', *, *, #43, .T. ) ;
#200 = DIRECTION ( 'NONE',  ( 1.000000000000000000, 0.000000000000000000, -0.000000000000000000 ) ) ;
#201 = LOCAL_TIME ( 8, 55, 22.00000000000000000, #156 ) ;
#202 = ORIENTED_EDGE ( 'NONE', *, *, #251, .F. ) ;
#203 = DIRECTION ( 'NONE',  ( 0.000000000000000000, 0.000000000000000000, 1.000000000000000000 ) ) ;
#204 = DIRECTION ( 'NONE',  ( -0.000000000000000000, -0.000000000000000000, -1.000000000000000000 ) ) ;
#205 = DIRECTION ( 'NONE',  ( -1.000000000000000000, 0.000000000000000000, 0.000000000000000000 ) ) ;
#206 = CALENDAR_DATE ( 2023, 13, 2 ) ;
#207 = APPROVAL_ROLE ( '' ) ;
#208 = ADVANCED_FACE ( 'NONE', ( #171 ), #30, .T. ) ;
#209 = APPROVAL_ROLE ( '' ) ;
#210 = EDGE_LOOP ( 'NONE', ( #100, #33, #53, #34 ) ) ;
#211 = VERTEX_POINT ( 'NONE', #75 ) ;
#212 = CC_DESIGN_DATE_AND_TIME_ASSIGNMENT ( #132, #91, ( #175 ) ) ;
#213 = VECTOR ( 'NONE', #167, 1000.000000000000000 ) ;
#214 = CARTESIAN_POINT ( 'NONE',  ( 0.000000000000000000, 0.000000000000000000, 7.000000000000000000 ) ) ;
#215 = FACE_BOUND ( 'NONE', #250, .T. ) ;
#216 = CARTESIAN_POINT ( 'NONE',  ( 0.000000000000000000, 0.000000000000000000, 0.000000000000000000 ) ) ;
#217 = CYLINDRICAL_SURFACE ( 'NONE', #148, 9.000000000000000000 ) ;
#218 = CARTESIAN_POINT ( 'NONE',  ( 12.00000000000000178, 1.469576158976824144E-15, 0.000000000000000000 ) ) ;
#219 = DIRECTION ( 'NONE',  ( -0.000000000000000000, -0.000000000000000000, -1.000000000000000000 ) ) ;
#220 = DATE_AND_TIME ( #136, #201 ) ;
#221 = DIRECTION ( 'NONE',  ( 0.000000000000000000, 0.000000000000000000, 1.000000000000000000 ) ) ;
#222 = APPROVAL_DATE_TIME ( #193, #165 ) ;
#223 = ADVANCED_FACE ( 'NONE', ( #224 ), #92, .T. ) ;
#224 = FACE_OUTER_BOUND ( 'NONE', #66, .T. ) ;
#225 = DIRECTION ( 'NONE',  ( 0.000000000000000000, 0.000000000000000000, 1.000000000000000000 ) ) ;
#226 = ORIENTED_EDGE ( 'NONE', *, *, #251, .T. ) ;
#227 = CC_DESIGN_DATE_AND_TIME_ASSIGNMENT ( #29, #77, ( #249 ) ) ;
#228 = ORIENTED_EDGE ( 'NONE', *, *, #169, .F. ) ;
#229 = AXIS2_PLACEMENT_3D ( 'NONE', #214, #60, #191 ) ;
#230 = ADVANCED_BREP_SHAPE_REPRESENTATION ( '5291', ( #158, #88 ), #41 ) ;
#231 = CC_DESIGN_PERSON_AND_ORGANIZATION_ASSIGNMENT ( #245, #194, ( #137 ) ) ;
#232 = DIRECTION ( 'NONE',  ( 0.000000000000000000, 0.000000000000000000, 1.000000000000000000 ) ) ;
#233 = AXIS2_PLACEMENT_3D ( 'NONE', #105, #1, #184 ) ;
#234 = CARTESIAN_POINT ( 'NONE',  ( 0.000000000000000000, 0.000000000000000000, 7.000000000000000000 ) ) ;
#235 = FACE_OUTER_BOUND ( 'NONE', #161, .T. ) ;
#236 = DIRECTION ( 'NONE',  ( 1.000000000000000000, 0.000000000000000000, 0.000000000000000000 ) ) ;
#237 = ORIENTED_EDGE ( 'NONE', *, *, #159, .F. ) ;
#238 = PLANE ( 'NONE',  #24 ) ;
#239 = DIRECTION ( 'NONE',  ( 1.000000000000000000, 0.000000000000000000, 0.000000000000000000 ) ) ;
#240 = DATE_AND_TIME ( #206, #126 ) ;
#241 = CC_DESIGN_APPROVAL ( #165, ( #249 ) ) ;
#242 = PERSON_AND_ORGANIZATION ( #32, #155 ) ;
#243 = ADVANCED_FACE ( 'NONE', ( #6 ), #244, .F. ) ;
#244 = PLANE ( 'NONE',  #134 ) ;
#245 = PERSON_AND_ORGANIZATION ( #32, #155 ) ;
#246 = CARTESIAN_POINT ( 'NONE',  ( 0.000000000000000000, 0.000000000000000000, 7.000000000000000000 ) ) ;
#247 = LOCAL_TIME ( 8, 55, 22.00000000000000000, #10 ) ;
#248 = APPROVAL_STATUS ( 'not_yet_approved' ) ;
#249 = PRODUCT_DEFINITION ( 'NEZNÁMÝ', '', #137, #153 ) ;
#250 = EDGE_LOOP ( 'NONE', ( #196, #237 ) ) ;
#251 = EDGE_CURVE ( 'NONE', #123, #14, #140, .T. ) ;
#252 = CARTESIAN_POINT ( 'NONE',  ( 12.00000000000000178, 1.469576158976824144E-15, 7.000000000000000000 ) ) ;
#253 = DIRECTION ( 'NONE',  ( 0.000000000000000000, 0.000000000000000000, 1.000000000000000000 ) ) ;
#254 = VERTEX_POINT ( 'NONE', #69 ) ;
#255 = EDGE_LOOP ( 'NONE', ( #20, #78, #199, #160 ) ) ;
ENDSEC;
END-ISO-10303-21;
