ISO-10303-21;
HEADER;
FILE_DESCRIPTION (( 'STEP AP203' ),
    '1' );
FILE_NAME ('78de.STEP',
    '2023-02-13T11:12:54',
    ( '' ),
    ( '' ),
    'SwSTEP 2.0',
    'SolidWorks 2019',
    '' );
FILE_SCHEMA (( 'CONFIG_CONTROL_DESIGN' ));
ENDSEC;

DATA;
#1 = AXIS2_PLACEMENT_3D ( 'NONE', #135, #200, #105 ) ;
#2 = AXIS2_PLACEMENT_3D ( 'NONE', #107, #67, #144 ) ;
#3 = PRODUCT_DEFINITION ( 'NEZNÁMÝ', '', #178, #27 ) ;
#4 =( NAMED_UNIT ( * ) PLANE_ANGLE_UNIT ( ) SI_UNIT ( $, .RADIAN. ) );
#5 = CYLINDRICAL_SURFACE ( 'NONE', #164, 8.000000000000000000 ) ;
#6 = CARTESIAN_POINT ( 'NONE',  ( 0.000000000000000000, 0.000000000000000000, 5.000000000000000000 ) ) ;
#7 = CC_DESIGN_DATE_AND_TIME_ASSIGNMENT ( #131, #134, ( #3 ) ) ;
#8 = PLANE ( 'NONE',  #176 ) ;
#9 = APPROVAL_ROLE ( '' ) ;
#10 = EDGE_CURVE ( 'NONE', #40, #204, #196, .T. ) ;
#11 = COORDINATED_UNIVERSAL_TIME_OFFSET ( 1, 0, .AHEAD. ) ;
#12 = CALENDAR_DATE ( 2023, 13, 2 ) ;
#13 =( GEOMETRIC_REPRESENTATION_CONTEXT ( 3 ) GLOBAL_UNCERTAINTY_ASSIGNED_CONTEXT ( ( #188 ) ) GLOBAL_UNIT_ASSIGNED_CONTEXT ( ( #237, #4, #223 ) ) REPRESENTATION_CONTEXT ( 'NONE', 'WORKASPACE' ) );
#14 = PERSON_AND_ORGANIZATION_ROLE ( 'creator' ) ;
#15 = CARTESIAN_POINT ( 'NONE',  ( -8.000000000000000000, 0.000000000000000000, 5.000000000000000000 ) ) ;
#16 = CC_DESIGN_PERSON_AND_ORGANIZATION_ASSIGNMENT ( #227, #174, ( #46 ) ) ;
#17 = PERSON_AND_ORGANIZATION ( #57, #20 ) ;
#18 = VERTEX_POINT ( 'NONE', #154 ) ;
#19 = VECTOR ( 'NONE', #88, 1000.000000000000000 ) ;
#20 = ORGANIZATION ( 'NEURÈENÝ', 'NEURÈENÝ', '' ) ;
#21 = VERTEX_POINT ( 'NONE', #54 ) ;
#22 = CARTESIAN_POINT ( 'NONE',  ( 5.250000000000000888, 6.429395695523605139E-16, 100.0000000000000000 ) ) ;
#23 = CIRCLE ( 'NONE', #139, 8.000000000000000000 ) ;
#24 = CARTESIAN_POINT ( 'NONE',  ( 0.000000000000000000, 0.000000000000000000, 100.0000000000000000 ) ) ;
#25 = DIRECTION ( 'NONE',  ( -0.000000000000000000, -0.000000000000000000, -1.000000000000000000 ) ) ;
#26 = FACE_OUTER_BOUND ( 'NONE', #198, .T. ) ;
#27 = DESIGN_CONTEXT ( 'detailed design', #147, 'design' ) ;
#28 = CYLINDRICAL_SURFACE ( 'NONE', #55, 5.250000000000000888 ) ;
#29 = VERTEX_POINT ( 'NONE', #230 ) ;
#30 = APPROVAL_STATUS ( 'not_yet_approved' ) ;
#31 = APPROVAL_DATE_TIME ( #171, #48 ) ;
#32 = CALENDAR_DATE ( 2023, 13, 2 ) ;
#33 = PERSON_AND_ORGANIZATION ( #57, #20 ) ;
#34 = AXIS2_PLACEMENT_3D ( 'NONE', #24, #187, #222 ) ;
#35 = ORIENTED_EDGE ( 'NONE', *, *, #79, .F. ) ;
#36 = APPROVAL_DATE_TIME ( #192, #162 ) ;
#37 = EDGE_LOOP ( 'NONE', ( #72, #122 ) ) ;
#38 = ORIENTED_EDGE ( 'NONE', *, *, #112, .T. ) ;
#39 = EDGE_CURVE ( 'NONE', #152, #211, #218, .T. ) ;
#40 = VERTEX_POINT ( 'NONE', #229 ) ;
#41 = CC_DESIGN_APPROVAL ( #205, ( #46 ) ) ;
#42 = ORIENTED_EDGE ( 'NONE', *, *, #53, .F. ) ;
#43 = DIRECTION ( 'NONE',  ( 1.000000000000000000, 0.000000000000000000, 0.000000000000000000 ) ) ;
#44 = EDGE_CURVE ( 'NONE', #18, #40, #184, .T. ) ;
#45 = CARTESIAN_POINT ( 'NONE',  ( 0.000000000000000000, 0.000000000000000000, 5.000000000000000000 ) ) ;
#46 = SECURITY_CLASSIFICATION ( '', '', #150 ) ;
#47 = CARTESIAN_POINT ( 'NONE',  ( 5.250000000000000888, 6.429395695523605139E-16, 5.000000000000000000 ) ) ;
#48 = APPROVAL ( #70, 'NEURÈENÝ' ) ;
#49 = DIRECTION ( 'NONE',  ( 1.000000000000000000, 0.000000000000000000, -0.000000000000000000 ) ) ;
#50 = APPROVAL_PERSON_ORGANIZATION ( #243, #48, #241 ) ;
#51 = CALENDAR_DATE ( 2023, 13, 2 ) ;
#52 = CALENDAR_DATE ( 2023, 13, 2 ) ;
#53 = EDGE_CURVE ( 'NONE', #29, #177, #250, .T. ) ;
#54 = CARTESIAN_POINT ( 'NONE',  ( 8.000000000000000000, 9.797174393178825657E-16, 0.000000000000000000 ) ) ;
#55 = AXIS2_PLACEMENT_3D ( 'NONE', #169, #113, #182 ) ;
#56 = DIRECTION ( 'NONE',  ( 1.000000000000000000, 0.000000000000000000, 0.000000000000000000 ) ) ;
#57 = PERSON ( 'NEURÈENÝ', 'NEURÈENÝ', 'NEURÈENÝ', ('NEURÈENÝ'), ('NEURÈENÝ'), ('NEURÈENÝ') ) ;
#58 = APPLICATION_PROTOCOL_DEFINITION ( 'international standard', 'config_control_design', 1994, #147 ) ;
#59 = DIRECTION ( 'NONE',  ( 1.000000000000000000, 0.000000000000000000, 0.000000000000000000 ) ) ;
#60 = EDGE_CURVE ( 'NONE', #40, #18, #23, .T. ) ;
#61 = DIRECTION ( 'NONE',  ( 0.000000000000000000, 0.000000000000000000, 1.000000000000000000 ) ) ;
#62 = CIRCLE ( 'NONE', #108, 5.250000000000000888 ) ;
#63 = CC_DESIGN_SECURITY_CLASSIFICATION ( #46, ( #178 ) ) ;
#64 = ADVANCED_FACE ( 'NONE', ( #228 ), #81, .T. ) ;
#65 = DIRECTION ( 'NONE',  ( -0.000000000000000000, -0.000000000000000000, -1.000000000000000000 ) ) ;
#66 = CARTESIAN_POINT ( 'NONE',  ( 5.250000000000000888, 6.429395695523605139E-16, 100.0000000000000000 ) ) ;
#67 = DIRECTION ( 'NONE',  ( 0.000000000000000000, 0.000000000000000000, 1.000000000000000000 ) ) ;
#68 = DIRECTION ( 'NONE',  ( 0.000000000000000000, 0.000000000000000000, 1.000000000000000000 ) ) ;
#69 = CARTESIAN_POINT ( 'NONE',  ( -8.000000000000000000, 0.000000000000000000, 0.000000000000000000 ) ) ;
#70 = APPROVAL_STATUS ( 'not_yet_approved' ) ;
#71 = VECTOR ( 'NONE', #234, 1000.000000000000000 ) ;
#72 = ORIENTED_EDGE ( 'NONE', *, *, #53, .T. ) ;
#73 = COORDINATED_UNIVERSAL_TIME_OFFSET ( 1, 0, .AHEAD. ) ;
#74 = DIRECTION ( 'NONE',  ( 0.000000000000000000, 0.000000000000000000, 1.000000000000000000 ) ) ;
#75 = APPROVAL_DATE_TIME ( #245, #205 ) ;
#76 = ORIENTED_EDGE ( 'NONE', *, *, #149, .T. ) ;
#77 = CLOSED_SHELL ( 'NONE', ( #214, #101, #64, #96, #167, #143, #217 ) ) ;
#78 = APPLICATION_PROTOCOL_DEFINITION ( 'international standard', 'config_control_design', 1994, #252 ) ;
#79 = EDGE_CURVE ( 'NONE', #177, #211, #137, .T. ) ;
#80 = ORIENTED_EDGE ( 'NONE', *, *, #138, .F. ) ;
#81 = CYLINDRICAL_SURFACE ( 'NONE', #103, 8.000000000000000000 ) ;
#82 = ORIENTED_EDGE ( 'NONE', *, *, #126, .T. ) ;
#83 = APPROVAL_PERSON_ORGANIZATION ( #190, #162, #9 ) ;
#84 = DIRECTION ( 'NONE',  ( 0.000000000000000000, 0.000000000000000000, 1.000000000000000000 ) ) ;
#85 = PRODUCT_DEFINITION_SHAPE ( 'NONE', 'NONE',  #3 ) ;
#86 = VECTOR ( 'NONE', #148, 1000.000000000000000 ) ;
#87 = PLANE ( 'NONE',  #2 ) ;
#88 = DIRECTION ( 'NONE',  ( -0.000000000000000000, -0.000000000000000000, -1.000000000000000000 ) ) ;
#89 = LINE ( 'NONE', #142, #19 ) ;
#90 = PRODUCT ( '78de', '78de', '', ( #153 ) ) ;
#91 = LOCAL_TIME ( 12, 12, 54.00000000000000000, #97 ) ;
#92 = FACE_BOUND ( 'NONE', #133, .T. ) ;
#93 = PERSON_AND_ORGANIZATION_ROLE ( 'design_supplier' ) ;
#94 = ORIENTED_EDGE ( 'NONE', *, *, #160, .F. ) ;
#95 = PERSON_AND_ORGANIZATION ( #57, #20 ) ;
#96 = ADVANCED_FACE ( 'NONE', ( #92, #209 ), #8, .T. ) ;
#97 = COORDINATED_UNIVERSAL_TIME_OFFSET ( 1, 0, .AHEAD. ) ;
#98 = ORIENTED_EDGE ( 'NONE', *, *, #199, .F. ) ;
#99 = DIRECTION ( 'NONE',  ( 1.000000000000000000, 0.000000000000000000, 0.000000000000000000 ) ) ;
#100 = EDGE_LOOP ( 'NONE', ( #215, #80 ) ) ;
#101 = ADVANCED_FACE ( 'NONE', ( #26 ), #5, .T. ) ;
#102 = ORIENTED_EDGE ( 'NONE', *, *, #79, .T. ) ;
#103 = AXIS2_PLACEMENT_3D ( 'NONE', #140, #202, #159 ) ;
#104 = AXIS2_PLACEMENT_3D ( 'NONE', #239, #235, #206 ) ;
#105 = DIRECTION ( 'NONE',  ( 1.000000000000000000, 0.000000000000000000, 0.000000000000000000 ) ) ;
#106 = ORIENTED_EDGE ( 'NONE', *, *, #39, .T. ) ;
#107 = CARTESIAN_POINT ( 'NONE',  ( 0.000000000000000000, 0.000000000000000000, 100.0000000000000000 ) ) ;
#108 = AXIS2_PLACEMENT_3D ( 'NONE', #186, #68, #168 ) ;
#109 = CARTESIAN_POINT ( 'NONE',  ( -5.250000000000000888, 0.000000000000000000, 100.0000000000000000 ) ) ;
#110 = PLANE ( 'NONE',  #104 ) ;
#111 = DIRECTION ( 'NONE',  ( 0.000000000000000000, 0.000000000000000000, 1.000000000000000000 ) ) ;
#112 = EDGE_CURVE ( 'NONE', #18, #21, #89, .T. ) ;
#113 = DIRECTION ( 'NONE',  ( -0.000000000000000000, -0.000000000000000000, -1.000000000000000000 ) ) ;
#114 = AXIS2_PLACEMENT_3D ( 'NONE', #246, #74, #59 ) ;
#115 = AXIS2_PLACEMENT_3D ( 'NONE', #240, #84, #43 ) ;
#116 = PERSON_AND_ORGANIZATION ( #57, #20 ) ;
#117 = PERSON_AND_ORGANIZATION_ROLE ( 'creator' ) ;
#118 = APPROVAL_PERSON_ORGANIZATION ( #17, #205, #121 ) ;
#119 = EDGE_LOOP ( 'NONE', ( #191, #158 ) ) ;
#120 = CC_DESIGN_PERSON_AND_ORGANIZATION_ASSIGNMENT ( #33, #93, ( #178 ) ) ;
#121 = APPROVAL_ROLE ( '' ) ;
#122 = ORIENTED_EDGE ( 'NONE', *, *, #160, .T. ) ;
#123 = DIRECTION ( 'NONE',  ( 0.000000000000000000, 0.000000000000000000, 1.000000000000000000 ) ) ;
#124 = EDGE_LOOP ( 'NONE', ( #35, #42, #173, #106 ) ) ;
#125 = CC_DESIGN_PERSON_AND_ORGANIZATION_ASSIGNMENT ( #116, #117, ( #178 ) ) ;
#126 = EDGE_CURVE ( 'NONE', #211, #152, #62, .T. ) ;
#127 = ORIENTED_EDGE ( 'NONE', *, *, #138, .T. ) ;
#128 = DIRECTION ( 'NONE',  ( 0.000000000000000000, 0.000000000000000000, 1.000000000000000000 ) ) ;
#129 = FACE_OUTER_BOUND ( 'NONE', #255, .T. ) ;
#130 = DATE_AND_TIME ( #51, #155 ) ;
#131 = DATE_AND_TIME ( #12, #181 ) ;
#132 = PERSON_AND_ORGANIZATION ( #57, #20 ) ;
#133 = EDGE_LOOP ( 'NONE', ( #253, #175 ) ) ;
#134 = DATE_TIME_ROLE ( 'creation_date' ) ;
#135 = CARTESIAN_POINT ( 'NONE',  ( 0.000000000000000000, 0.000000000000000000, 100.0000000000000000 ) ) ;
#136 = CARTESIAN_POINT ( 'NONE',  ( 0.000000000000000000, 0.000000000000000000, 5.000000000000000000 ) ) ;
#137 = LINE ( 'NONE', #22, #71 ) ;
#138 = EDGE_CURVE ( 'NONE', #21, #204, #207, .T. ) ;
#139 = AXIS2_PLACEMENT_3D ( 'NONE', #179, #61, #254 ) ;
#140 = CARTESIAN_POINT ( 'NONE',  ( 0.000000000000000000, 0.000000000000000000, 5.000000000000000000 ) ) ;
#141 = DIRECTION ( 'NONE',  ( 1.000000000000000000, 0.000000000000000000, 0.000000000000000000 ) ) ;
#142 = CARTESIAN_POINT ( 'NONE',  ( 8.000000000000000000, 9.797174393178825657E-16, 5.000000000000000000 ) ) ;
#143 = ADVANCED_FACE ( 'NONE', ( #166 ), #28, .T. ) ;
#144 = DIRECTION ( 'NONE',  ( 1.000000000000000000, 0.000000000000000000, -0.000000000000000000 ) ) ;
#145 = CC_DESIGN_APPROVAL ( #48, ( #3 ) ) ;
#146 = DIRECTION ( 'NONE',  ( 1.000000000000000000, 0.000000000000000000, 0.000000000000000000 ) ) ;
#147 = APPLICATION_CONTEXT ( 'configuration controlled 3d designs of mechanical parts and assemblies' ) ;
#148 = DIRECTION ( 'NONE',  ( -0.000000000000000000, -0.000000000000000000, -1.000000000000000000 ) ) ;
#149 = EDGE_CURVE ( 'NONE', #204, #21, #156, .T. ) ;
#150 = SECURITY_CLASSIFICATION_LEVEL ( 'unclassified' ) ;
#151 = COORDINATED_UNIVERSAL_TIME_OFFSET ( 1, 0, .AHEAD. ) ;
#152 = VERTEX_POINT ( 'NONE', #226 ) ;
#153 = MECHANICAL_CONTEXT ( 'NONE', #252, 'mechanical' ) ;
#154 = CARTESIAN_POINT ( 'NONE',  ( 8.000000000000000000, 9.797174393178825657E-16, 5.000000000000000000 ) ) ;
#155 = LOCAL_TIME ( 12, 12, 54.00000000000000000, #73 ) ;
#156 = CIRCLE ( 'NONE', #115, 8.000000000000000000 ) ;
#157 = DIRECTION ( 'NONE',  ( 0.000000000000000000, 0.000000000000000000, 1.000000000000000000 ) ) ;
#158 = ORIENTED_EDGE ( 'NONE', *, *, #44, .T. ) ;
#159 = DIRECTION ( 'NONE',  ( -1.000000000000000000, 0.000000000000000000, 0.000000000000000000 ) ) ;
#160 = EDGE_CURVE ( 'NONE', #177, #29, #224, .T. ) ;
#161 = AXIS2_PLACEMENT_3D ( 'NONE', #210, #157, #99 ) ;
#162 = APPROVAL ( #30, 'NEURÈENÝ' ) ;
#163 = EDGE_LOOP ( 'NONE', ( #219, #213, #248, #76 ) ) ;
#164 = AXIS2_PLACEMENT_3D ( 'NONE', #45, #25, #170 ) ;
#165 = CARTESIAN_POINT ( 'NONE',  ( 0.000000000000000000, 0.000000000000000000, 0.000000000000000000 ) ) ;
#166 = FACE_OUTER_BOUND ( 'NONE', #124, .T. ) ;
#167 = ADVANCED_FACE ( 'NONE', ( #189 ), #110, .F. ) ;
#168 = DIRECTION ( 'NONE',  ( 1.000000000000000000, 0.000000000000000000, 0.000000000000000000 ) ) ;
#169 = CARTESIAN_POINT ( 'NONE',  ( 0.000000000000000000, 0.000000000000000000, 100.0000000000000000 ) ) ;
#170 = DIRECTION ( 'NONE',  ( -1.000000000000000000, 0.000000000000000000, 0.000000000000000000 ) ) ;
#171 = DATE_AND_TIME ( #52, #201 ) ;
#172 = DATE_TIME_ROLE ( 'classification_date' ) ;
#173 = ORIENTED_EDGE ( 'NONE', *, *, #199, .T. ) ;
#174 = PERSON_AND_ORGANIZATION_ROLE ( 'classification_officer' ) ;
#175 = ORIENTED_EDGE ( 'NONE', *, *, #126, .F. ) ;
#176 = AXIS2_PLACEMENT_3D ( 'NONE', #6, #225, #49 ) ;
#177 = VERTEX_POINT ( 'NONE', #66 ) ;
#178 = PRODUCT_DEFINITION_FORMATION_WITH_SPECIFIED_SOURCE ( 'LIBOVOLNÝ', '', #90, .NOT_KNOWN. ) ;
#179 = CARTESIAN_POINT ( 'NONE',  ( 0.000000000000000000, 0.000000000000000000, 5.000000000000000000 ) ) ;
#180 = ORIENTED_EDGE ( 'NONE', *, *, #44, .F. ) ;
#181 = LOCAL_TIME ( 12, 12, 54.00000000000000000, #212 ) ;
#182 = DIRECTION ( 'NONE',  ( -1.000000000000000000, 0.000000000000000000, 0.000000000000000000 ) ) ;
#183 = ADVANCED_BREP_SHAPE_REPRESENTATION ( '78de', ( #249, #161 ), #13 ) ;
#184 = CIRCLE ( 'NONE', #193, 8.000000000000000000 ) ;
#185 = FACE_OUTER_BOUND ( 'NONE', #37, .T. ) ;
#186 = CARTESIAN_POINT ( 'NONE',  ( 0.000000000000000000, 0.000000000000000000, 5.000000000000000000 ) ) ;
#187 = DIRECTION ( 'NONE',  ( -0.000000000000000000, -0.000000000000000000, -1.000000000000000000 ) ) ;
#188 = UNCERTAINTY_MEASURE_WITH_UNIT (LENGTH_MEASURE( 1.000000000000000082E-05 ), #237, 'distance_accuracy_value', 'NONE');
#189 = FACE_OUTER_BOUND ( 'NONE', #100, .T. ) ;
#190 = PERSON_AND_ORGANIZATION ( #57, #20 ) ;
#191 = ORIENTED_EDGE ( 'NONE', *, *, #60, .T. ) ;
#192 = DATE_AND_TIME ( #32, #244 ) ;
#193 = AXIS2_PLACEMENT_3D ( 'NONE', #136, #123, #56 ) ;
#194 = CC_DESIGN_APPROVAL ( #162, ( #178 ) ) ;
#195 = SHAPE_DEFINITION_REPRESENTATION ( #85, #183 ) ;
#196 = LINE ( 'NONE', #15, #232 ) ;
#197 = CALENDAR_DATE ( 2023, 13, 2 ) ;
#198 = EDGE_LOOP ( 'NONE', ( #180, #38, #127, #231 ) ) ;
#199 = EDGE_CURVE ( 'NONE', #29, #152, #221, .T. ) ;
#200 = DIRECTION ( 'NONE',  ( 0.000000000000000000, 0.000000000000000000, 1.000000000000000000 ) ) ;
#201 = LOCAL_TIME ( 12, 12, 54.00000000000000000, #11 ) ;
#202 = DIRECTION ( 'NONE',  ( -0.000000000000000000, -0.000000000000000000, -1.000000000000000000 ) ) ;
#203 = AXIS2_PLACEMENT_3D ( 'NONE', #208, #128, #146 ) ;
#204 = VERTEX_POINT ( 'NONE', #69 ) ;
#205 = APPROVAL ( #247, 'NEURÈENÝ' ) ;
#206 = DIRECTION ( 'NONE',  ( 1.000000000000000000, 0.000000000000000000, -0.000000000000000000 ) ) ;
#207 = CIRCLE ( 'NONE', #216, 8.000000000000000000 ) ;
#208 = CARTESIAN_POINT ( 'NONE',  ( 0.000000000000000000, 0.000000000000000000, 100.0000000000000000 ) ) ;
#209 = FACE_OUTER_BOUND ( 'NONE', #119, .T. ) ;
#210 = CARTESIAN_POINT ( 'NONE',  ( 0.000000000000000000, 0.000000000000000000, 0.000000000000000000 ) ) ;
#211 = VERTEX_POINT ( 'NONE', #47 ) ;
#212 = COORDINATED_UNIVERSAL_TIME_OFFSET ( 1, 0, .AHEAD. ) ;
#213 = ORIENTED_EDGE ( 'NONE', *, *, #60, .F. ) ;
#214 = ADVANCED_FACE ( 'NONE', ( #129 ), #236, .T. ) ;
#215 = ORIENTED_EDGE ( 'NONE', *, *, #149, .F. ) ;
#216 = AXIS2_PLACEMENT_3D ( 'NONE', #165, #111, #141 ) ;
#217 = ADVANCED_FACE ( 'NONE', ( #185 ), #87, .T. ) ;
#218 = CIRCLE ( 'NONE', #114, 5.250000000000000888 ) ;
#219 = ORIENTED_EDGE ( 'NONE', *, *, #112, .F. ) ;
#220 = CC_DESIGN_PERSON_AND_ORGANIZATION_ASSIGNMENT ( #132, #251, ( #90 ) ) ;
#221 = LINE ( 'NONE', #109, #86 ) ;
#222 = DIRECTION ( 'NONE',  ( -1.000000000000000000, 0.000000000000000000, 0.000000000000000000 ) ) ;
#223 =( NAMED_UNIT ( * ) SI_UNIT ( $, .STERADIAN. ) SOLID_ANGLE_UNIT ( ) );
#224 = CIRCLE ( 'NONE', #203, 5.250000000000000888 ) ;
#225 = DIRECTION ( 'NONE',  ( 0.000000000000000000, 0.000000000000000000, 1.000000000000000000 ) ) ;
#226 = CARTESIAN_POINT ( 'NONE',  ( -5.250000000000000888, 0.000000000000000000, 5.000000000000000000 ) ) ;
#227 = PERSON_AND_ORGANIZATION ( #57, #20 ) ;
#228 = FACE_OUTER_BOUND ( 'NONE', #163, .T. ) ;
#229 = CARTESIAN_POINT ( 'NONE',  ( -8.000000000000000000, 0.000000000000000000, 5.000000000000000000 ) ) ;
#230 = CARTESIAN_POINT ( 'NONE',  ( -5.250000000000000888, 0.000000000000000000, 100.0000000000000000 ) ) ;
#231 = ORIENTED_EDGE ( 'NONE', *, *, #10, .F. ) ;
#232 = VECTOR ( 'NONE', #65, 1000.000000000000000 ) ;
#233 = PRODUCT_RELATED_PRODUCT_CATEGORY ( 'detail', '', ( #90 ) ) ;
#234 = DIRECTION ( 'NONE',  ( -0.000000000000000000, -0.000000000000000000, -1.000000000000000000 ) ) ;
#235 = DIRECTION ( 'NONE',  ( 0.000000000000000000, 0.000000000000000000, 1.000000000000000000 ) ) ;
#236 = CYLINDRICAL_SURFACE ( 'NONE', #34, 5.250000000000000888 ) ;
#237 =( LENGTH_UNIT ( ) NAMED_UNIT ( * ) SI_UNIT ( .MILLI., .METRE. ) );
#238 = CC_DESIGN_PERSON_AND_ORGANIZATION_ASSIGNMENT ( #95, #14, ( #3 ) ) ;
#239 = CARTESIAN_POINT ( 'NONE',  ( 0.000000000000000000, 0.000000000000000000, 0.000000000000000000 ) ) ;
#240 = CARTESIAN_POINT ( 'NONE',  ( 0.000000000000000000, 0.000000000000000000, 0.000000000000000000 ) ) ;
#241 = APPROVAL_ROLE ( '' ) ;
#242 = CC_DESIGN_DATE_AND_TIME_ASSIGNMENT ( #130, #172, ( #46 ) ) ;
#243 = PERSON_AND_ORGANIZATION ( #57, #20 ) ;
#244 = LOCAL_TIME ( 12, 12, 54.00000000000000000, #151 ) ;
#245 = DATE_AND_TIME ( #197, #91 ) ;
#246 = CARTESIAN_POINT ( 'NONE',  ( 0.000000000000000000, 0.000000000000000000, 5.000000000000000000 ) ) ;
#247 = APPROVAL_STATUS ( 'not_yet_approved' ) ;
#248 = ORIENTED_EDGE ( 'NONE', *, *, #10, .T. ) ;
#249 = MANIFOLD_SOLID_BREP ( 'Pøidat vysunutím3', #77 ) ;
#250 = CIRCLE ( 'NONE', #1, 5.250000000000000888 ) ;
#251 = PERSON_AND_ORGANIZATION_ROLE ( 'design_owner' ) ;
#252 = APPLICATION_CONTEXT ( 'configuration controlled 3d designs of mechanical parts and assemblies' ) ;
#253 = ORIENTED_EDGE ( 'NONE', *, *, #39, .F. ) ;
#254 = DIRECTION ( 'NONE',  ( 1.000000000000000000, 0.000000000000000000, 0.000000000000000000 ) ) ;
#255 = EDGE_LOOP ( 'NONE', ( #94, #102, #82, #98 ) ) ;
ENDSEC;
END-ISO-10303-21;
