ISO-10303-21;
HEADER;
FILE_DESCRIPTION (( 'STEP AP203' ),
    '1' );
FILE_NAME ('dee4.STEP',
    '2023-01-31T14:48:31',
    ( '' ),
    ( '' ),
    'SwSTEP 2.0',
    'SolidWorks 2019',
    '' );
FILE_SCHEMA (( 'CONFIG_CONTROL_DESIGN' ));
ENDSEC;

DATA;
#1 = AXIS2_PLACEMENT_3D ( 'NONE', #45, #60, #10 ) ;
#2 = ORIENTED_EDGE ( 'NONE', *, *, #203, .F. ) ;
#3 = CYLINDRICAL_SURFACE ( 'NONE', #116, 0.5000000000000000000 ) ;
#4 = VECTOR ( 'NONE', #121, 1000.000000000000000 ) ;
#5 = APPROVAL ( #233, 'NEURÈENÝ' ) ;
#6 = EDGE_CURVE ( 'NONE', #139, #117, #201, .T. ) ;
#7 = CARTESIAN_POINT ( 'NONE',  ( 0.5000000000000000000, 6.123233995736766036E-17, 100.0000000000000000 ) ) ;
#8 = ORGANIZATION ( 'NEURÈENÝ', 'NEURÈENÝ', '' ) ;
#9 = VERTEX_POINT ( 'NONE', #225 ) ;
#10 = DIRECTION ( 'NONE',  ( -1.000000000000000000, 0.000000000000000000, 0.000000000000000000 ) ) ;
#11 = DIRECTION ( 'NONE',  ( -0.000000000000000000, -0.000000000000000000, -1.000000000000000000 ) ) ;
#12 = VECTOR ( 'NONE', #161, 1000.000000000000000 ) ;
#13 = DIRECTION ( 'NONE',  ( 1.000000000000000000, 0.000000000000000000, 0.000000000000000000 ) ) ;
#14 = CARTESIAN_POINT ( 'NONE',  ( 0.5000000000000000000, 6.123233995736766036E-17, 100.0000000000000000 ) ) ;
#15 = APPROVAL_ROLE ( '' ) ;
#16 = DATE_AND_TIME ( #107, #18 ) ;
#17 = LINE ( 'NONE', #126, #93 ) ;
#18 = LOCAL_TIME ( 15, 48, 31.00000000000000000, #250 ) ;
#19 = DATE_TIME_ROLE ( 'classification_date' ) ;
#20 = PERSON_AND_ORGANIZATION ( #123, #8 ) ;
#21 = EDGE_CURVE ( 'NONE', #139, #115, #86, .T. ) ;
#22 = DIRECTION ( 'NONE',  ( 1.000000000000000000, 0.000000000000000000, 0.000000000000000000 ) ) ;
#23 = PLANE ( 'NONE',  #114 ) ;
#24 = DIRECTION ( 'NONE',  ( 1.000000000000000000, 0.000000000000000000, -0.000000000000000000 ) ) ;
#25 = ORIENTED_EDGE ( 'NONE', *, *, #40, .T. ) ;
#26 = FACE_OUTER_BOUND ( 'NONE', #73, .T. ) ;
#27 = CARTESIAN_POINT ( 'NONE',  ( 0.000000000000000000, 0.000000000000000000, 100.0000000000000000 ) ) ;
#28 = EDGE_CURVE ( 'NONE', #117, #139, #188, .T. ) ;
#29 = AXIS2_PLACEMENT_3D ( 'NONE', #242, #78, #22 ) ;
#30 = DIRECTION ( 'NONE',  ( -0.000000000000000000, -0.000000000000000000, -1.000000000000000000 ) ) ;
#31 = APPROVAL_STATUS ( 'not_yet_approved' ) ;
#32 = COORDINATED_UNIVERSAL_TIME_OFFSET ( 1, 0, .AHEAD. ) ;
#33 = LOCAL_TIME ( 15, 48, 31.00000000000000000, #32 ) ;
#34 = DATE_AND_TIME ( #254, #71 ) ;
#35 = APPROVAL ( #180, 'NEURÈENÝ' ) ;
#36 = ORIENTED_EDGE ( 'NONE', *, *, #171, .T. ) ;
#37 = ORIENTED_EDGE ( 'NONE', *, *, #21, .F. ) ;
#38 = DIRECTION ( 'NONE',  ( 1.000000000000000000, 0.000000000000000000, -0.000000000000000000 ) ) ;
#39 = CC_DESIGN_DATE_AND_TIME_ASSIGNMENT ( #127, #19, ( #221 ) ) ;
#40 = EDGE_CURVE ( 'NONE', #95, #207, #17, .T. ) ;
#41 = CARTESIAN_POINT ( 'NONE',  ( 0.000000000000000000, 0.000000000000000000, 0.000000000000000000 ) ) ;
#42 = DIRECTION ( 'NONE',  ( 1.000000000000000000, 0.000000000000000000, -0.000000000000000000 ) ) ;
#43 = AXIS2_PLACEMENT_3D ( 'NONE', #173, #196, #24 ) ;
#44 = CARTESIAN_POINT ( 'NONE',  ( 0.000000000000000000, 0.000000000000000000, 0.000000000000000000 ) ) ;
#45 = CARTESIAN_POINT ( 'NONE',  ( 0.000000000000000000, 0.000000000000000000, 1.199999999999999956 ) ) ;
#46 = AXIS2_PLACEMENT_3D ( 'NONE', #152, #56, #245 ) ;
#47 = APPLICATION_PROTOCOL_DEFINITION ( 'international standard', 'config_control_design', 1994, #101 ) ;
#48 = APPROVAL_DATE_TIME ( #162, #5 ) ;
#49 = AXIS2_PLACEMENT_3D ( 'NONE', #54, #100, #193 ) ;
#50 = VERTEX_POINT ( 'NONE', #103 ) ;
#51 = PRODUCT_RELATED_PRODUCT_CATEGORY ( 'detail', '', ( #62 ) ) ;
#52 = ORIENTED_EDGE ( 'NONE', *, *, #172, .F. ) ;
#53 = EDGE_CURVE ( 'NONE', #117, #157, #178, .T. ) ;
#54 = CARTESIAN_POINT ( 'NONE',  ( 0.000000000000000000, 0.000000000000000000, 1.199999999999999956 ) ) ;
#55 = ORIENTED_EDGE ( 'NONE', *, *, #185, .F. ) ;
#56 = DIRECTION ( 'NONE',  ( -0.000000000000000000, -0.000000000000000000, -1.000000000000000000 ) ) ;
#57 = CARTESIAN_POINT ( 'NONE',  ( 0.000000000000000000, 0.000000000000000000, 1.199999999999999956 ) ) ;
#58 = DIRECTION ( 'NONE',  ( 0.000000000000000000, 0.000000000000000000, 1.000000000000000000 ) ) ;
#59 = AXIS2_PLACEMENT_3D ( 'NONE', #184, #83, #108 ) ;
#60 = DIRECTION ( 'NONE',  ( -0.000000000000000000, -0.000000000000000000, -1.000000000000000000 ) ) ;
#61 = PRODUCT_DEFINITION_FORMATION_WITH_SPECIFIED_SOURCE ( 'LIBOVOLNÝ', '', #62, .NOT_KNOWN. ) ;
#62 = PRODUCT ( 'dee4', 'dee4', '', ( #202 ) ) ;
#63 = PERSON_AND_ORGANIZATION ( #123, #8 ) ;
#64 = ORIENTED_EDGE ( 'NONE', *, *, #172, .T. ) ;
#65 = COORDINATED_UNIVERSAL_TIME_OFFSET ( 1, 0, .AHEAD. ) ;
#66 = CARTESIAN_POINT ( 'NONE',  ( 0.000000000000000000, 0.000000000000000000, 100.0000000000000000 ) ) ;
#67 = PERSON_AND_ORGANIZATION_ROLE ( 'classification_officer' ) ;
#68 = APPROVAL_PERSON_ORGANIZATION ( #223, #236, #230 ) ;
#69 = DATE_TIME_ROLE ( 'creation_date' ) ;
#70 = PERSON_AND_ORGANIZATION_ROLE ( 'creator' ) ;
#71 = LOCAL_TIME ( 15, 48, 31.00000000000000000, #165 ) ;
#72 = APPLICATION_CONTEXT ( 'configuration controlled 3d designs of mechanical parts and assemblies' ) ;
#73 = EDGE_LOOP ( 'NONE', ( #240, #92 ) ) ;
#74 = ADVANCED_FACE ( 'NONE', ( #144, #252 ), #149, .T. ) ;
#75 = DIRECTION ( 'NONE',  ( 0.000000000000000000, 0.000000000000000000, 1.000000000000000000 ) ) ;
#76 = EDGE_LOOP ( 'NONE', ( #136, #169, #234, #192 ) ) ;
#77 = AXIS2_PLACEMENT_3D ( 'NONE', #104, #150, #129 ) ;
#78 = DIRECTION ( 'NONE',  ( 0.000000000000000000, 0.000000000000000000, 1.000000000000000000 ) ) ;
#79 = DIRECTION ( 'NONE',  ( 0.000000000000000000, 0.000000000000000000, 1.000000000000000000 ) ) ;
#80 = ORIENTED_EDGE ( 'NONE', *, *, #171, .F. ) ;
#81 = CARTESIAN_POINT ( 'NONE',  ( 0.5000000000000000000, 6.123233995736766036E-17, 1.199999999999999956 ) ) ;
#82 = VECTOR ( 'NONE', #30, 1000.000000000000000 ) ;
#83 = DIRECTION ( 'NONE',  ( 0.000000000000000000, 0.000000000000000000, 1.000000000000000000 ) ) ;
#84 = FACE_OUTER_BOUND ( 'NONE', #238, .T. ) ;
#85 = AXIS2_PLACEMENT_3D ( 'NONE', #27, #11, #220 ) ;
#86 = LINE ( 'NONE', #229, #82 ) ;
#87 = CALENDAR_DATE ( 2023, 31, 1 ) ;
#88 =( NAMED_UNIT ( * ) SI_UNIT ( $, .STERADIAN. ) SOLID_ANGLE_UNIT ( ) );
#89 = CIRCLE ( 'NONE', #227, 0.5000000000000000000 ) ;
#90 = ORIENTED_EDGE ( 'NONE', *, *, #28, .F. ) ;
#91 =( GEOMETRIC_REPRESENTATION_CONTEXT ( 3 ) GLOBAL_UNCERTAINTY_ASSIGNED_CONTEXT ( ( #183 ) ) GLOBAL_UNIT_ASSIGNED_CONTEXT ( ( #142, #128, #88 ) ) REPRESENTATION_CONTEXT ( 'NONE', 'WORKASPACE' ) );
#92 = ORIENTED_EDGE ( 'NONE', *, *, #224, .F. ) ;
#93 = VECTOR ( 'NONE', #200, 1000.000000000000000 ) ;
#94 = ADVANCED_FACE ( 'NONE', ( #197 ), #3, .T. ) ;
#95 = VERTEX_POINT ( 'NONE', #122 ) ;
#96 = CYLINDRICAL_SURFACE ( 'NONE', #85, 0.5000000000000000000 ) ;
#97 = CC_DESIGN_DATE_AND_TIME_ASSIGNMENT ( #16, #69, ( #124 ) ) ;
#98 = CARTESIAN_POINT ( 'NONE',  ( 1.250000000000000000, 1.530808498934191571E-16, 1.199999999999999956 ) ) ;
#99 = FACE_OUTER_BOUND ( 'NONE', #168, .T. ) ;
#100 = DIRECTION ( 'NONE',  ( 0.000000000000000000, 0.000000000000000000, 1.000000000000000000 ) ) ;
#101 = APPLICATION_CONTEXT ( 'configuration controlled 3d designs of mechanical parts and assemblies' ) ;
#102 = LINE ( 'NONE', #98, #4 ) ;
#103 = CARTESIAN_POINT ( 'NONE',  ( 1.250000000000000000, 1.530808498934191571E-16, 0.000000000000000000 ) ) ;
#104 = CARTESIAN_POINT ( 'NONE',  ( 0.000000000000000000, 0.000000000000000000, 0.000000000000000000 ) ) ;
#105 = APPROVAL_PERSON_ORGANIZATION ( #20, #5, #15 ) ;
#106 = DATE_AND_TIME ( #109, #33 ) ;
#107 = CALENDAR_DATE ( 2023, 31, 1 ) ;
#108 = DIRECTION ( 'NONE',  ( 1.000000000000000000, 0.000000000000000000, 0.000000000000000000 ) ) ;
#109 = CALENDAR_DATE ( 2023, 31, 1 ) ;
#110 = APPROVAL_DATE_TIME ( #34, #236 ) ;
#111 = DESIGN_CONTEXT ( 'detailed design', #101, 'design' ) ;
#112 = EDGE_LOOP ( 'NONE', ( #237, #52 ) ) ;
#113 = CC_DESIGN_PERSON_AND_ORGANIZATION_ASSIGNMENT ( #205, #130, ( #61 ) ) ;
#114 = AXIS2_PLACEMENT_3D ( 'NONE', #155, #75, #42 ) ;
#115 = VERTEX_POINT ( 'NONE', #217 ) ;
#116 = AXIS2_PLACEMENT_3D ( 'NONE', #246, #222, #248 ) ;
#117 = VERTEX_POINT ( 'NONE', #7 ) ;
#118 = PLANE ( 'NONE',  #43 ) ;
#119 = ORIENTED_EDGE ( 'NONE', *, *, #241, .T. ) ;
#120 = DIRECTION ( 'NONE',  ( 1.000000000000000000, 0.000000000000000000, 0.000000000000000000 ) ) ;
#121 = DIRECTION ( 'NONE',  ( -0.000000000000000000, -0.000000000000000000, -1.000000000000000000 ) ) ;
#122 = CARTESIAN_POINT ( 'NONE',  ( -1.250000000000000000, 0.000000000000000000, 1.199999999999999956 ) ) ;
#123 = PERSON ( 'NEURÈENÝ', 'NEURÈENÝ', 'NEURÈENÝ', ('NEURÈENÝ'), ('NEURÈENÝ'), ('NEURÈENÝ') ) ;
#124 = PRODUCT_DEFINITION ( 'NEZNÁMÝ', '', #61, #111 ) ;
#125 = FACE_OUTER_BOUND ( 'NONE', #76, .T. ) ;
#126 = CARTESIAN_POINT ( 'NONE',  ( -1.250000000000000000, 0.000000000000000000, 1.199999999999999956 ) ) ;
#127 = DATE_AND_TIME ( #147, #167 ) ;
#128 =( NAMED_UNIT ( * ) PLANE_ANGLE_UNIT ( ) SI_UNIT ( $, .RADIAN. ) );
#129 = DIRECTION ( 'NONE',  ( 1.000000000000000000, 0.000000000000000000, 0.000000000000000000 ) ) ;
#130 = PERSON_AND_ORGANIZATION_ROLE ( 'design_supplier' ) ;
#131 = COORDINATED_UNIVERSAL_TIME_OFFSET ( 1, 0, .AHEAD. ) ;
#132 = CIRCLE ( 'NONE', #187, 1.250000000000000000 ) ;
#133 = ORIENTED_EDGE ( 'NONE', *, *, #40, .F. ) ;
#134 = EDGE_LOOP ( 'NONE', ( #195, #36 ) ) ;
#135 = EDGE_LOOP ( 'NONE', ( #208, #255 ) ) ;
#136 = ORIENTED_EDGE ( 'NONE', *, *, #53, .F. ) ;
#137 = AXIS2_PLACEMENT_3D ( 'NONE', #41, #159, #247 ) ;
#138 = DIRECTION ( 'NONE',  ( 0.000000000000000000, 0.000000000000000000, 1.000000000000000000 ) ) ;
#139 = VERTEX_POINT ( 'NONE', #199 ) ;
#140 = DIRECTION ( 'NONE',  ( 1.000000000000000000, 0.000000000000000000, 0.000000000000000000 ) ) ;
#141 = DIRECTION ( 'NONE',  ( 0.000000000000000000, 0.000000000000000000, 1.000000000000000000 ) ) ;
#142 =( LENGTH_UNIT ( ) NAMED_UNIT ( * ) SI_UNIT ( .MILLI., .METRE. ) );
#143 = SECURITY_CLASSIFICATION_LEVEL ( 'unclassified' ) ;
#144 = FACE_BOUND ( 'NONE', #112, .T. ) ;
#145 = PERSON_AND_ORGANIZATION ( #123, #8 ) ;
#146 = DIRECTION ( 'NONE',  ( 0.000000000000000000, 0.000000000000000000, 1.000000000000000000 ) ) ;
#147 = CALENDAR_DATE ( 2023, 31, 1 ) ;
#148 = APPROVAL_PERSON_ORGANIZATION ( #63, #35, #251 ) ;
#149 = PLANE ( 'NONE',  #232 ) ;
#150 = DIRECTION ( 'NONE',  ( 0.000000000000000000, 0.000000000000000000, 1.000000000000000000 ) ) ;
#151 = CC_DESIGN_PERSON_AND_ORGANIZATION_ASSIGNMENT ( #231, #67, ( #221 ) ) ;
#152 = CARTESIAN_POINT ( 'NONE',  ( 0.000000000000000000, 0.000000000000000000, 1.199999999999999956 ) ) ;
#153 = CIRCLE ( 'NONE', #239, 0.5000000000000000000 ) ;
#154 = MANIFOLD_SOLID_BREP ( 'Pøidat vysunutím3', #158 ) ;
#155 = CARTESIAN_POINT ( 'NONE',  ( 0.000000000000000000, 0.000000000000000000, 0.000000000000000000 ) ) ;
#156 = FACE_OUTER_BOUND ( 'NONE', #135, .T. ) ;
#157 = VERTEX_POINT ( 'NONE', #81 ) ;
#158 = CLOSED_SHELL ( 'NONE', ( #94, #194, #219, #74, #181, #206, #190 ) ) ;
#159 = DIRECTION ( 'NONE',  ( 0.000000000000000000, 0.000000000000000000, 1.000000000000000000 ) ) ;
#160 = PERSON_AND_ORGANIZATION_ROLE ( 'design_owner' ) ;
#161 = DIRECTION ( 'NONE',  ( -0.000000000000000000, -0.000000000000000000, -1.000000000000000000 ) ) ;
#162 = DATE_AND_TIME ( #87, #179 ) ;
#163 = PERSON_AND_ORGANIZATION_ROLE ( 'creator' ) ;
#164 = APPLICATION_PROTOCOL_DEFINITION ( 'international standard', 'config_control_design', 1994, #72 ) ;
#165 = COORDINATED_UNIVERSAL_TIME_OFFSET ( 1, 0, .AHEAD. ) ;
#166 = CC_DESIGN_PERSON_AND_ORGANIZATION_ASSIGNMENT ( #145, #160, ( #62 ) ) ;
#167 = LOCAL_TIME ( 15, 48, 31.00000000000000000, #131 ) ;
#168 = EDGE_LOOP ( 'NONE', ( #80, #216, #198, #133 ) ) ;
#169 = ORIENTED_EDGE ( 'NONE', *, *, #6, .F. ) ;
#170 = CC_DESIGN_APPROVAL ( #35, ( #124 ) ) ;
#171 = EDGE_CURVE ( 'NONE', #9, #95, #212, .T. ) ;
#172 = EDGE_CURVE ( 'NONE', #157, #115, #89, .T. ) ;
#173 = CARTESIAN_POINT ( 'NONE',  ( 0.000000000000000000, 0.000000000000000000, 100.0000000000000000 ) ) ;
#174 = CARTESIAN_POINT ( 'NONE',  ( 0.000000000000000000, 0.000000000000000000, 1.199999999999999956 ) ) ;
#175 = CYLINDRICAL_SURFACE ( 'NONE', #1, 1.250000000000000000 ) ;
#176 = ADVANCED_BREP_SHAPE_REPRESENTATION ( 'dee4', ( #154, #77 ), #91 ) ;
#177 = CARTESIAN_POINT ( 'NONE',  ( -1.250000000000000000, 0.000000000000000000, 0.000000000000000000 ) ) ;
#178 = LINE ( 'NONE', #14, #12 ) ;
#179 = LOCAL_TIME ( 15, 48, 31.00000000000000000, #65 ) ;
#180 = APPROVAL_STATUS ( 'not_yet_approved' ) ;
#181 = ADVANCED_FACE ( 'NONE', ( #26 ), #23, .F. ) ;
#182 = PERSON_AND_ORGANIZATION ( #123, #8 ) ;
#183 = UNCERTAINTY_MEASURE_WITH_UNIT (LENGTH_MEASURE( 1.000000000000000082E-05 ), #142, 'distance_accuracy_value', 'NONE');
#184 = CARTESIAN_POINT ( 'NONE',  ( 0.000000000000000000, 0.000000000000000000, 100.0000000000000000 ) ) ;
#185 = EDGE_CURVE ( 'NONE', #9, #50, #102, .T. ) ;
#186 = PERSON_AND_ORGANIZATION ( #123, #8 ) ;
#187 = AXIS2_PLACEMENT_3D ( 'NONE', #44, #141, #120 ) ;
#188 = CIRCLE ( 'NONE', #59, 0.5000000000000000000 ) ;
#189 = CC_DESIGN_SECURITY_CLASSIFICATION ( #221, ( #61 ) ) ;
#190 = ADVANCED_FACE ( 'NONE', ( #156 ), #118, .T. ) ;
#191 = CC_DESIGN_PERSON_AND_ORGANIZATION_ASSIGNMENT ( #186, #163, ( #61 ) ) ;
#192 = ORIENTED_EDGE ( 'NONE', *, *, #211, .T. ) ;
#193 = DIRECTION ( 'NONE',  ( 1.000000000000000000, 0.000000000000000000, 0.000000000000000000 ) ) ;
#194 = ADVANCED_FACE ( 'NONE', ( #99 ), #175, .T. ) ;
#195 = ORIENTED_EDGE ( 'NONE', *, *, #203, .T. ) ;
#196 = DIRECTION ( 'NONE',  ( 0.000000000000000000, 0.000000000000000000, 1.000000000000000000 ) ) ;
#197 = FACE_OUTER_BOUND ( 'NONE', #209, .T. ) ;
#198 = ORIENTED_EDGE ( 'NONE', *, *, #224, .T. ) ;
#199 = CARTESIAN_POINT ( 'NONE',  ( -0.5000000000000000000, 0.000000000000000000, 100.0000000000000000 ) ) ;
#200 = DIRECTION ( 'NONE',  ( -0.000000000000000000, -0.000000000000000000, -1.000000000000000000 ) ) ;
#201 = CIRCLE ( 'NONE', #243, 0.5000000000000000000 ) ;
#202 = MECHANICAL_CONTEXT ( 'NONE', #72, 'mechanical' ) ;
#203 = EDGE_CURVE ( 'NONE', #95, #9, #218, .T. ) ;
#204 = DIRECTION ( 'NONE',  ( 1.000000000000000000, 0.000000000000000000, 0.000000000000000000 ) ) ;
#205 = PERSON_AND_ORGANIZATION ( #123, #8 ) ;
#206 = ADVANCED_FACE ( 'NONE', ( #125 ), #96, .T. ) ;
#207 = VERTEX_POINT ( 'NONE', #177 ) ;
#208 = ORIENTED_EDGE ( 'NONE', *, *, #6, .T. ) ;
#209 = EDGE_LOOP ( 'NONE', ( #90, #244, #64, #37 ) ) ;
#210 = CIRCLE ( 'NONE', #137, 1.250000000000000000 ) ;
#211 = EDGE_CURVE ( 'NONE', #115, #157, #153, .T. ) ;
#212 = CIRCLE ( 'NONE', #29, 1.250000000000000000 ) ;
#213 = CARTESIAN_POINT ( 'NONE',  ( 0.000000000000000000, 0.000000000000000000, 1.199999999999999956 ) ) ;
#214 = CC_DESIGN_APPROVAL ( #5, ( #61 ) ) ;
#215 = CYLINDRICAL_SURFACE ( 'NONE', #46, 1.250000000000000000 ) ;
#216 = ORIENTED_EDGE ( 'NONE', *, *, #185, .T. ) ;
#217 = CARTESIAN_POINT ( 'NONE',  ( -0.5000000000000000000, 0.000000000000000000, 1.199999999999999956 ) ) ;
#218 = CIRCLE ( 'NONE', #49, 1.250000000000000000 ) ;
#219 = ADVANCED_FACE ( 'NONE', ( #84 ), #215, .T. ) ;
#220 = DIRECTION ( 'NONE',  ( -1.000000000000000000, 0.000000000000000000, 0.000000000000000000 ) ) ;
#221 = SECURITY_CLASSIFICATION ( '', '', #143 ) ;
#222 = DIRECTION ( 'NONE',  ( -0.000000000000000000, -0.000000000000000000, -1.000000000000000000 ) ) ;
#223 = PERSON_AND_ORGANIZATION ( #123, #8 ) ;
#224 = EDGE_CURVE ( 'NONE', #50, #207, #210, .T. ) ;
#225 = CARTESIAN_POINT ( 'NONE',  ( 1.250000000000000000, 1.530808498934191571E-16, 1.199999999999999956 ) ) ;
#226 = PRODUCT_DEFINITION_SHAPE ( 'NONE', 'NONE',  #124 ) ;
#227 = AXIS2_PLACEMENT_3D ( 'NONE', #57, #138, #140 ) ;
#228 = SHAPE_DEFINITION_REPRESENTATION ( #226, #176 ) ;
#229 = CARTESIAN_POINT ( 'NONE',  ( -0.5000000000000000000, 0.000000000000000000, 100.0000000000000000 ) ) ;
#230 = APPROVAL_ROLE ( '' ) ;
#231 = PERSON_AND_ORGANIZATION ( #123, #8 ) ;
#232 = AXIS2_PLACEMENT_3D ( 'NONE', #174, #58, #38 ) ;
#233 = APPROVAL_STATUS ( 'not_yet_approved' ) ;
#234 = ORIENTED_EDGE ( 'NONE', *, *, #21, .T. ) ;
#235 = CC_DESIGN_APPROVAL ( #236, ( #221 ) ) ;
#236 = APPROVAL ( #31, 'NEURÈENÝ' ) ;
#237 = ORIENTED_EDGE ( 'NONE', *, *, #211, .F. ) ;
#238 = EDGE_LOOP ( 'NONE', ( #55, #2, #25, #119 ) ) ;
#239 = AXIS2_PLACEMENT_3D ( 'NONE', #213, #79, #13 ) ;
#240 = ORIENTED_EDGE ( 'NONE', *, *, #241, .F. ) ;
#241 = EDGE_CURVE ( 'NONE', #207, #50, #132, .T. ) ;
#242 = CARTESIAN_POINT ( 'NONE',  ( 0.000000000000000000, 0.000000000000000000, 1.199999999999999956 ) ) ;
#243 = AXIS2_PLACEMENT_3D ( 'NONE', #66, #146, #204 ) ;
#244 = ORIENTED_EDGE ( 'NONE', *, *, #53, .T. ) ;
#245 = DIRECTION ( 'NONE',  ( -1.000000000000000000, 0.000000000000000000, 0.000000000000000000 ) ) ;
#246 = CARTESIAN_POINT ( 'NONE',  ( 0.000000000000000000, 0.000000000000000000, 100.0000000000000000 ) ) ;
#247 = DIRECTION ( 'NONE',  ( 1.000000000000000000, 0.000000000000000000, 0.000000000000000000 ) ) ;
#248 = DIRECTION ( 'NONE',  ( -1.000000000000000000, 0.000000000000000000, 0.000000000000000000 ) ) ;
#249 = CC_DESIGN_PERSON_AND_ORGANIZATION_ASSIGNMENT ( #182, #70, ( #124 ) ) ;
#250 = COORDINATED_UNIVERSAL_TIME_OFFSET ( 1, 0, .AHEAD. ) ;
#251 = APPROVAL_ROLE ( '' ) ;
#252 = FACE_OUTER_BOUND ( 'NONE', #134, .T. ) ;
#253 = APPROVAL_DATE_TIME ( #106, #35 ) ;
#254 = CALENDAR_DATE ( 2023, 31, 1 ) ;
#255 = ORIENTED_EDGE ( 'NONE', *, *, #28, .T. ) ;
ENDSEC;
END-ISO-10303-21;
