ISO-10303-21;
HEADER;
FILE_DESCRIPTION (( 'STEP AP203' ),
    '1' );
FILE_NAME ('4d2d.STEP',
    '2023-02-13T10:19:23',
    ( '' ),
    ( '' ),
    'SwSTEP 2.0',
    'SolidWorks 2019',
    '' );
FILE_SCHEMA (( 'CONFIG_CONTROL_DESIGN' ));
ENDSEC;

DATA;
#1 = CIRCLE ( 'NONE', #83, 6.000000000000000888 ) ;
#2 = DIRECTION ( 'NONE',  ( -1.000000000000000000, 0.000000000000000000, 0.000000000000000000 ) ) ;
#3 = MECHANICAL_CONTEXT ( 'NONE', #125, 'mechanical' ) ;
#4 = CALENDAR_DATE ( 2023, 13, 2 ) ;
#5 = PERSON_AND_ORGANIZATION_ROLE ( 'classification_officer' ) ;
#6 = CYLINDRICAL_SURFACE ( 'NONE', #246, 10.00000000000000000 ) ;
#7 = FACE_OUTER_BOUND ( 'NONE', #78, .T. ) ;
#8 = AXIS2_PLACEMENT_3D ( 'NONE', #225, #118, #38 ) ;
#9 = ORIENTED_EDGE ( 'NONE', *, *, #124, .T. ) ;
#10 = ORIENTED_EDGE ( 'NONE', *, *, #101, .T. ) ;
#11 = CC_DESIGN_DATE_AND_TIME_ASSIGNMENT ( #29, #224, ( #17 ) ) ;
#12 = CARTESIAN_POINT ( 'NONE',  ( -6.000000000000000888, 0.000000000000000000, 7.000000000000000000 ) ) ;
#13 = CARTESIAN_POINT ( 'NONE',  ( 6.000000000000000888, 7.347880794884120722E-16, 630.0000000000000000 ) ) ;
#14 = FACE_OUTER_BOUND ( 'NONE', #167, .T. ) ;
#15 = CC_DESIGN_APPROVAL ( #122, ( #17 ) ) ;
#16 = PLANE ( 'NONE',  #8 ) ;
#17 = PRODUCT_DEFINITION ( 'NEZNÁMÝ', '', #183, #116 ) ;
#18 = ORIENTED_EDGE ( 'NONE', *, *, #112, .T. ) ;
#19 = APPROVAL_ROLE ( '' ) ;
#20 = COORDINATED_UNIVERSAL_TIME_OFFSET ( 1, 0, .AHEAD. ) ;
#21 = SHAPE_DEFINITION_REPRESENTATION ( #245, #184 ) ;
#22 = VERTEX_POINT ( 'NONE', #133 ) ;
#23 = APPROVAL_ROLE ( '' ) ;
#24 = CC_DESIGN_PERSON_AND_ORGANIZATION_ASSIGNMENT ( #102, #5, ( #32 ) ) ;
#25 = AXIS2_PLACEMENT_3D ( 'NONE', #173, #69, #150 ) ;
#26 = DATE_AND_TIME ( #182, #43 ) ;
#27 = DIRECTION ( 'NONE',  ( -0.000000000000000000, -0.000000000000000000, -1.000000000000000000 ) ) ;
#28 = EDGE_CURVE ( 'NONE', #195, #134, #217, .T. ) ;
#29 = DATE_AND_TIME ( #214, #145 ) ;
#30 = DIRECTION ( 'NONE',  ( -0.000000000000000000, -0.000000000000000000, -1.000000000000000000 ) ) ;
#31 = AXIS2_PLACEMENT_3D ( 'NONE', #59, #176, #2 ) ;
#32 = SECURITY_CLASSIFICATION ( '', '', #153 ) ;
#33 = CARTESIAN_POINT ( 'NONE',  ( 6.000000000000000888, 7.347880794884120722E-16, 630.0000000000000000 ) ) ;
#34 = VERTEX_POINT ( 'NONE', #12 ) ;
#35 = DATE_TIME_ROLE ( 'classification_date' ) ;
#36 = AXIS2_PLACEMENT_3D ( 'NONE', #165, #30, #48 ) ;
#37 = PERSON_AND_ORGANIZATION ( #166, #204 ) ;
#38 = DIRECTION ( 'NONE',  ( 1.000000000000000000, 0.000000000000000000, -0.000000000000000000 ) ) ;
#39 = ORIENTED_EDGE ( 'NONE', *, *, #215, .T. ) ;
#40 = DIRECTION ( 'NONE',  ( 0.000000000000000000, 0.000000000000000000, 1.000000000000000000 ) ) ;
#41 = EDGE_CURVE ( 'NONE', #119, #22, #237, .T. ) ;
#42 = AXIS2_PLACEMENT_3D ( 'NONE', #197, #148, #130 ) ;
#43 = LOCAL_TIME ( 11, 19, 23.00000000000000000, #77 ) ;
#44 = CARTESIAN_POINT ( 'NONE',  ( 10.00000000000000000, 1.224646799147353256E-15, 7.000000000000000000 ) ) ;
#45 = CC_DESIGN_SECURITY_CLASSIFICATION ( #32, ( #183 ) ) ;
#46 = ORIENTED_EDGE ( 'NONE', *, *, #86, .T. ) ;
#47 = ADVANCED_FACE ( 'NONE', ( #198, #14 ), #16, .T. ) ;
#48 = DIRECTION ( 'NONE',  ( -1.000000000000000000, 0.000000000000000000, 0.000000000000000000 ) ) ;
#49 = DIRECTION ( 'NONE',  ( 1.000000000000000000, 0.000000000000000000, 0.000000000000000000 ) ) ;
#50 = CLOSED_SHELL ( 'NONE', ( #189, #53, #164, #47, #201, #168, #251 ) ) ;
#51 = CARTESIAN_POINT ( 'NONE',  ( 0.000000000000000000, 0.000000000000000000, 0.000000000000000000 ) ) ;
#52 = ORIENTED_EDGE ( 'NONE', *, *, #162, .T. ) ;
#53 = ADVANCED_FACE ( 'NONE', ( #160 ), #248, .T. ) ;
#54 = EDGE_LOOP ( 'NONE', ( #71, #88, #129, #46 ) ) ;
#55 = APPROVAL_STATUS ( 'not_yet_approved' ) ;
#56 = APPROVAL_PERSON_ORGANIZATION ( #161, #122, #208 ) ;
#57 = EDGE_LOOP ( 'NONE', ( #128, #247, #18, #226 ) ) ;
#58 = CALENDAR_DATE ( 2023, 13, 2 ) ;
#59 = CARTESIAN_POINT ( 'NONE',  ( 0.000000000000000000, 0.000000000000000000, 7.000000000000000000 ) ) ;
#60 = DIRECTION ( 'NONE',  ( 1.000000000000000000, 0.000000000000000000, 0.000000000000000000 ) ) ;
#61 = LINE ( 'NONE', #141, #200 ) ;
#62 = CC_DESIGN_PERSON_AND_ORGANIZATION_ASSIGNMENT ( #203, #155, ( #216 ) ) ;
#63 = AXIS2_PLACEMENT_3D ( 'NONE', #207, #105, #185 ) ;
#64 = CC_DESIGN_APPROVAL ( #230, ( #183 ) ) ;
#65 = DIRECTION ( 'NONE',  ( 1.000000000000000000, 0.000000000000000000, 0.000000000000000000 ) ) ;
#66 = CARTESIAN_POINT ( 'NONE',  ( 0.000000000000000000, 0.000000000000000000, 0.000000000000000000 ) ) ;
#67 = DIRECTION ( 'NONE',  ( 1.000000000000000000, 0.000000000000000000, 0.000000000000000000 ) ) ;
#68 = AXIS2_PLACEMENT_3D ( 'NONE', #51, #219, #96 ) ;
#69 = DIRECTION ( 'NONE',  ( 0.000000000000000000, 0.000000000000000000, 1.000000000000000000 ) ) ;
#70 = CIRCLE ( 'NONE', #223, 6.000000000000000888 ) ;
#71 = ORIENTED_EDGE ( 'NONE', *, *, #135, .F. ) ;
#72 = ORIENTED_EDGE ( 'NONE', *, *, #41, .F. ) ;
#73 = DIRECTION ( 'NONE',  ( 0.000000000000000000, 0.000000000000000000, 1.000000000000000000 ) ) ;
#74 = LOCAL_TIME ( 11, 19, 23.00000000000000000, #99 ) ;
#75 = DATE_AND_TIME ( #4, #93 ) ;
#76 = VERTEX_POINT ( 'NONE', #154 ) ;
#77 = COORDINATED_UNIVERSAL_TIME_OFFSET ( 1, 0, .AHEAD. ) ;
#78 = EDGE_LOOP ( 'NONE', ( #131, #156, #52, #9 ) ) ;
#79 = VECTOR ( 'NONE', #193, 1000.000000000000000 ) ;
#80 = DIRECTION ( 'NONE',  ( 1.000000000000000000, 0.000000000000000000, -0.000000000000000000 ) ) ;
#81 = CARTESIAN_POINT ( 'NONE',  ( 10.00000000000000000, 1.224646799147353256E-15, 0.000000000000000000 ) ) ;
#82 =( NAMED_UNIT ( * ) PLANE_ANGLE_UNIT ( ) SI_UNIT ( $, .RADIAN. ) );
#83 = AXIS2_PLACEMENT_3D ( 'NONE', #250, #85, #65 ) ;
#84 = CYLINDRICAL_SURFACE ( 'NONE', #36, 6.000000000000000888 ) ;
#85 = DIRECTION ( 'NONE',  ( 0.000000000000000000, 0.000000000000000000, 1.000000000000000000 ) ) ;
#86 = EDGE_CURVE ( 'NONE', #22, #119, #177, .T. ) ;
#87 = LINE ( 'NONE', #98, #79 ) ;
#88 = ORIENTED_EDGE ( 'NONE', *, *, #101, .F. ) ;
#89 = CC_DESIGN_PERSON_AND_ORGANIZATION_ASSIGNMENT ( #210, #106, ( #183 ) ) ;
#90 = ORIENTED_EDGE ( 'NONE', *, *, #196, .T. ) ;
#91 = PLANE ( 'NONE',  #126 ) ;
#92 = CARTESIAN_POINT ( 'NONE',  ( 0.000000000000000000, 0.000000000000000000, 630.0000000000000000 ) ) ;
#93 = LOCAL_TIME ( 11, 19, 23.00000000000000000, #20 ) ;
#94 = ORIENTED_EDGE ( 'NONE', *, *, #215, .F. ) ;
#95 = DIRECTION ( 'NONE',  ( 0.000000000000000000, 0.000000000000000000, 1.000000000000000000 ) ) ;
#96 = DIRECTION ( 'NONE',  ( 1.000000000000000000, 0.000000000000000000, 0.000000000000000000 ) ) ;
#97 = AXIS2_PLACEMENT_3D ( 'NONE', #92, #132, #60 ) ;
#98 = CARTESIAN_POINT ( 'NONE',  ( -10.00000000000000000, 0.000000000000000000, 7.000000000000000000 ) ) ;
#99 = COORDINATED_UNIVERSAL_TIME_OFFSET ( 1, 0, .AHEAD. ) ;
#100 = EDGE_LOOP ( 'NONE', ( #94, #234, #170, #238 ) ) ;
#101 = EDGE_CURVE ( 'NONE', #76, #181, #209, .T. ) ;
#102 = PERSON_AND_ORGANIZATION ( #166, #204 ) ;
#103 = CALENDAR_DATE ( 2023, 13, 2 ) ;
#104 = VECTOR ( 'NONE', #113, 1000.000000000000000 ) ;
#105 = DIRECTION ( 'NONE',  ( 0.000000000000000000, 0.000000000000000000, 1.000000000000000000 ) ) ;
#106 = PERSON_AND_ORGANIZATION_ROLE ( 'creator' ) ;
#107 =( NAMED_UNIT ( * ) SI_UNIT ( $, .STERADIAN. ) SOLID_ANGLE_UNIT ( ) );
#108 = CARTESIAN_POINT ( 'NONE',  ( 0.000000000000000000, 0.000000000000000000, 7.000000000000000000 ) ) ;
#109 =( GEOMETRIC_REPRESENTATION_CONTEXT ( 3 ) GLOBAL_UNCERTAINTY_ASSIGNED_CONTEXT ( ( #151 ) ) GLOBAL_UNIT_ASSIGNED_CONTEXT ( ( #229, #82, #107 ) ) REPRESENTATION_CONTEXT ( 'NONE', 'WORKASPACE' ) );
#110 = CC_DESIGN_APPROVAL ( #140, ( #32 ) ) ;
#111 = DIRECTION ( 'NONE',  ( -0.000000000000000000, -0.000000000000000000, -1.000000000000000000 ) ) ;
#112 = EDGE_CURVE ( 'NONE', #134, #34, #114, .T. ) ;
#113 = DIRECTION ( 'NONE',  ( -0.000000000000000000, -0.000000000000000000, -1.000000000000000000 ) ) ;
#114 = CIRCLE ( 'NONE', #63, 6.000000000000000888 ) ;
#115 = CC_DESIGN_PERSON_AND_ORGANIZATION_ASSIGNMENT ( #163, #233, ( #17 ) ) ;
#116 = DESIGN_CONTEXT ( 'detailed design', #254, 'design' ) ;
#117 = PERSON_AND_ORGANIZATION ( #166, #204 ) ;
#118 = DIRECTION ( 'NONE',  ( 0.000000000000000000, 0.000000000000000000, 1.000000000000000000 ) ) ;
#119 = VERTEX_POINT ( 'NONE', #81 ) ;
#120 = DIRECTION ( 'NONE',  ( 1.000000000000000000, 0.000000000000000000, 0.000000000000000000 ) ) ;
#121 = APPROVAL_DATE_TIME ( #26, #230 ) ;
#122 = APPROVAL ( #249, 'NEURÈENÝ' ) ;
#123 = DIRECTION ( 'NONE',  ( 0.000000000000000000, 0.000000000000000000, 1.000000000000000000 ) ) ;
#124 = EDGE_CURVE ( 'NONE', #34, #134, #1, .T. ) ;
#125 = APPLICATION_CONTEXT ( 'configuration controlled 3d designs of mechanical parts and assemblies' ) ;
#126 = AXIS2_PLACEMENT_3D ( 'NONE', #199, #40, #80 ) ;
#127 = FACE_OUTER_BOUND ( 'NONE', #54, .T. ) ;
#128 = ORIENTED_EDGE ( 'NONE', *, *, #196, .F. ) ;
#129 = ORIENTED_EDGE ( 'NONE', *, *, #178, .T. ) ;
#130 = DIRECTION ( 'NONE',  ( -1.000000000000000000, 0.000000000000000000, 0.000000000000000000 ) ) ;
#131 = ORIENTED_EDGE ( 'NONE', *, *, #28, .F. ) ;
#132 = DIRECTION ( 'NONE',  ( 0.000000000000000000, 0.000000000000000000, 1.000000000000000000 ) ) ;
#133 = CARTESIAN_POINT ( 'NONE',  ( -10.00000000000000000, 0.000000000000000000, 0.000000000000000000 ) ) ;
#134 = VERTEX_POINT ( 'NONE', #213 ) ;
#135 = EDGE_CURVE ( 'NONE', #181, #119, #61, .T. ) ;
#136 = ORIENTED_EDGE ( 'NONE', *, *, #124, .F. ) ;
#137 = APPROVAL_DATE_TIME ( #75, #122 ) ;
#138 = CIRCLE ( 'NONE', #97, 6.000000000000000888 ) ;
#139 = VERTEX_POINT ( 'NONE', #228 ) ;
#140 = APPROVAL ( #206, 'NEURÈENÝ' ) ;
#141 = CARTESIAN_POINT ( 'NONE',  ( 10.00000000000000000, 1.224646799147353256E-15, 7.000000000000000000 ) ) ;
#142 = AXIS2_PLACEMENT_3D ( 'NONE', #175, #95, #147 ) ;
#143 = LOCAL_TIME ( 11, 19, 23.00000000000000000, #241 ) ;
#144 = LINE ( 'NONE', #231, #240 ) ;
#145 = LOCAL_TIME ( 11, 19, 23.00000000000000000, #212 ) ;
#146 = EDGE_LOOP ( 'NONE', ( #236, #90 ) ) ;
#147 = DIRECTION ( 'NONE',  ( 1.000000000000000000, 0.000000000000000000, -0.000000000000000000 ) ) ;
#148 = DIRECTION ( 'NONE',  ( -0.000000000000000000, -0.000000000000000000, -1.000000000000000000 ) ) ;
#149 = AXIS2_PLACEMENT_3D ( 'NONE', #108, #123, #67 ) ;
#150 = DIRECTION ( 'NONE',  ( 1.000000000000000000, 0.000000000000000000, 0.000000000000000000 ) ) ;
#151 = UNCERTAINTY_MEASURE_WITH_UNIT (LENGTH_MEASURE( 1.000000000000000082E-05 ), #229, 'distance_accuracy_value', 'NONE');
#152 = AXIS2_PLACEMENT_3D ( 'NONE', #66, #211, #120 ) ;
#153 = SECURITY_CLASSIFICATION_LEVEL ( 'unclassified' ) ;
#154 = CARTESIAN_POINT ( 'NONE',  ( -10.00000000000000000, 0.000000000000000000, 7.000000000000000000 ) ) ;
#155 = PERSON_AND_ORGANIZATION_ROLE ( 'design_owner' ) ;
#156 = ORIENTED_EDGE ( 'NONE', *, *, #218, .F. ) ;
#157 = EDGE_LOOP ( 'NONE', ( #136, #255 ) ) ;
#158 = APPLICATION_PROTOCOL_DEFINITION ( 'international standard', 'config_control_design', 1994, #125 ) ;
#159 = APPROVAL_PERSON_ORGANIZATION ( #187, #230, #23 ) ;
#160 = FACE_OUTER_BOUND ( 'NONE', #100, .T. ) ;
#161 = PERSON_AND_ORGANIZATION ( #166, #204 ) ;
#162 = EDGE_CURVE ( 'NONE', #139, #34, #144, .T. ) ;
#163 = PERSON_AND_ORGANIZATION ( #166, #204 ) ;
#164 = ADVANCED_FACE ( 'NONE', ( #127 ), #6, .T. ) ;
#165 = CARTESIAN_POINT ( 'NONE',  ( 0.000000000000000000, 0.000000000000000000, 630.0000000000000000 ) ) ;
#166 = PERSON ( 'NEURÈENÝ', 'NEURÈENÝ', 'NEURÈENÝ', ('NEURÈENÝ'), ('NEURÈENÝ'), ('NEURÈENÝ') ) ;
#167 = EDGE_LOOP ( 'NONE', ( #10, #39 ) ) ;
#168 = ADVANCED_FACE ( 'NONE', ( #7 ), #84, .T. ) ;
#169 = FACE_OUTER_BOUND ( 'NONE', #57, .T. ) ;
#170 = ORIENTED_EDGE ( 'NONE', *, *, #41, .T. ) ;
#171 = DIRECTION ( 'NONE',  ( 0.000000000000000000, 0.000000000000000000, 1.000000000000000000 ) ) ;
#172 = CYLINDRICAL_SURFACE ( 'NONE', #42, 6.000000000000000888 ) ;
#173 = CARTESIAN_POINT ( 'NONE',  ( 0.000000000000000000, 0.000000000000000000, 0.000000000000000000 ) ) ;
#174 = CARTESIAN_POINT ( 'NONE',  ( 0.000000000000000000, 0.000000000000000000, 7.000000000000000000 ) ) ;
#175 = CARTESIAN_POINT ( 'NONE',  ( 0.000000000000000000, 0.000000000000000000, 0.000000000000000000 ) ) ;
#176 = DIRECTION ( 'NONE',  ( -0.000000000000000000, -0.000000000000000000, -1.000000000000000000 ) ) ;
#177 = CIRCLE ( 'NONE', #152, 10.00000000000000000 ) ;
#178 = EDGE_CURVE ( 'NONE', #76, #22, #87, .T. ) ;
#179 = DATE_AND_TIME ( #103, #74 ) ;
#180 = APPLICATION_PROTOCOL_DEFINITION ( 'international standard', 'config_control_design', 1994, #254 ) ;
#181 = VERTEX_POINT ( 'NONE', #44 ) ;
#182 = CALENDAR_DATE ( 2023, 13, 2 ) ;
#183 = PRODUCT_DEFINITION_FORMATION_WITH_SPECIFIED_SOURCE ( 'LIBOVOLNÝ', '', #216, .NOT_KNOWN. ) ;
#184 = ADVANCED_BREP_SHAPE_REPRESENTATION ( '4d2d', ( #227, #68 ), #109 ) ;
#185 = DIRECTION ( 'NONE',  ( 1.000000000000000000, 0.000000000000000000, 0.000000000000000000 ) ) ;
#186 = EDGE_LOOP ( 'NONE', ( #194, #72 ) ) ;
#187 = PERSON_AND_ORGANIZATION ( #166, #204 ) ;
#188 = DIRECTION ( 'NONE',  ( -0.000000000000000000, -0.000000000000000000, -1.000000000000000000 ) ) ;
#189 = ADVANCED_FACE ( 'NONE', ( #169 ), #172, .T. ) ;
#190 = DIRECTION ( 'NONE',  ( -1.000000000000000000, 0.000000000000000000, 0.000000000000000000 ) ) ;
#191 = CIRCLE ( 'NONE', #253, 10.00000000000000000 ) ;
#192 = CC_DESIGN_DATE_AND_TIME_ASSIGNMENT ( #221, #35, ( #32 ) ) ;
#193 = DIRECTION ( 'NONE',  ( -0.000000000000000000, -0.000000000000000000, -1.000000000000000000 ) ) ;
#194 = ORIENTED_EDGE ( 'NONE', *, *, #86, .F. ) ;
#195 = VERTEX_POINT ( 'NONE', #13 ) ;
#196 = EDGE_CURVE ( 'NONE', #195, #139, #138, .T. ) ;
#197 = CARTESIAN_POINT ( 'NONE',  ( 0.000000000000000000, 0.000000000000000000, 630.0000000000000000 ) ) ;
#198 = FACE_BOUND ( 'NONE', #157, .T. ) ;
#199 = CARTESIAN_POINT ( 'NONE',  ( 0.000000000000000000, 0.000000000000000000, 630.0000000000000000 ) ) ;
#200 = VECTOR ( 'NONE', #27, 1000.000000000000000 ) ;
#201 = ADVANCED_FACE ( 'NONE', ( #242 ), #222, .F. ) ;
#202 = DIRECTION ( 'NONE',  ( 1.000000000000000000, 0.000000000000000000, 0.000000000000000000 ) ) ;
#203 = PERSON_AND_ORGANIZATION ( #166, #204 ) ;
#204 = ORGANIZATION ( 'NEURÈENÝ', 'NEURÈENÝ', '' ) ;
#205 = PERSON_AND_ORGANIZATION_ROLE ( 'design_supplier' ) ;
#206 = APPROVAL_STATUS ( 'not_yet_approved' ) ;
#207 = CARTESIAN_POINT ( 'NONE',  ( 0.000000000000000000, 0.000000000000000000, 7.000000000000000000 ) ) ;
#208 = APPROVAL_ROLE ( '' ) ;
#209 = CIRCLE ( 'NONE', #149, 10.00000000000000000 ) ;
#210 = PERSON_AND_ORGANIZATION ( #166, #204 ) ;
#211 = DIRECTION ( 'NONE',  ( 0.000000000000000000, 0.000000000000000000, 1.000000000000000000 ) ) ;
#212 = COORDINATED_UNIVERSAL_TIME_OFFSET ( 1, 0, .AHEAD. ) ;
#213 = CARTESIAN_POINT ( 'NONE',  ( 6.000000000000000888, 7.347880794884120722E-16, 7.000000000000000000 ) ) ;
#214 = CALENDAR_DATE ( 2023, 13, 2 ) ;
#215 = EDGE_CURVE ( 'NONE', #181, #76, #191, .T. ) ;
#216 = PRODUCT ( '4d2d', '4d2d', '', ( #3 ) ) ;
#217 = LINE ( 'NONE', #33, #104 ) ;
#218 = EDGE_CURVE ( 'NONE', #139, #195, #70, .T. ) ;
#219 = DIRECTION ( 'NONE',  ( 0.000000000000000000, 0.000000000000000000, 1.000000000000000000 ) ) ;
#220 = FACE_OUTER_BOUND ( 'NONE', #146, .T. ) ;
#221 = DATE_AND_TIME ( #58, #143 ) ;
#222 = PLANE ( 'NONE',  #142 ) ;
#223 = AXIS2_PLACEMENT_3D ( 'NONE', #239, #73, #202 ) ;
#224 = DATE_TIME_ROLE ( 'creation_date' ) ;
#225 = CARTESIAN_POINT ( 'NONE',  ( 0.000000000000000000, 0.000000000000000000, 7.000000000000000000 ) ) ;
#226 = ORIENTED_EDGE ( 'NONE', *, *, #162, .F. ) ;
#227 = MANIFOLD_SOLID_BREP ( 'Pøidat vysunutím3', #50 ) ;
#228 = CARTESIAN_POINT ( 'NONE',  ( -6.000000000000000888, 0.000000000000000000, 630.0000000000000000 ) ) ;
#229 =( LENGTH_UNIT ( ) NAMED_UNIT ( * ) SI_UNIT ( .MILLI., .METRE. ) );
#230 = APPROVAL ( #55, 'NEURÈENÝ' ) ;
#231 = CARTESIAN_POINT ( 'NONE',  ( -6.000000000000000888, 0.000000000000000000, 630.0000000000000000 ) ) ;
#232 = APPROVAL_PERSON_ORGANIZATION ( #117, #140, #19 ) ;
#233 = PERSON_AND_ORGANIZATION_ROLE ( 'creator' ) ;
#234 = ORIENTED_EDGE ( 'NONE', *, *, #135, .T. ) ;
#235 = CC_DESIGN_PERSON_AND_ORGANIZATION_ASSIGNMENT ( #37, #205, ( #183 ) ) ;
#236 = ORIENTED_EDGE ( 'NONE', *, *, #218, .T. ) ;
#237 = CIRCLE ( 'NONE', #25, 10.00000000000000000 ) ;
#238 = ORIENTED_EDGE ( 'NONE', *, *, #178, .F. ) ;
#239 = CARTESIAN_POINT ( 'NONE',  ( 0.000000000000000000, 0.000000000000000000, 630.0000000000000000 ) ) ;
#240 = VECTOR ( 'NONE', #188, 1000.000000000000000 ) ;
#241 = COORDINATED_UNIVERSAL_TIME_OFFSET ( 1, 0, .AHEAD. ) ;
#242 = FACE_OUTER_BOUND ( 'NONE', #186, .T. ) ;
#243 = APPROVAL_DATE_TIME ( #179, #140 ) ;
#244 = PRODUCT_RELATED_PRODUCT_CATEGORY ( 'detail', '', ( #216 ) ) ;
#245 = PRODUCT_DEFINITION_SHAPE ( 'NONE', 'NONE',  #17 ) ;
#246 = AXIS2_PLACEMENT_3D ( 'NONE', #252, #111, #190 ) ;
#247 = ORIENTED_EDGE ( 'NONE', *, *, #28, .T. ) ;
#248 = CYLINDRICAL_SURFACE ( 'NONE', #31, 10.00000000000000000 ) ;
#249 = APPROVAL_STATUS ( 'not_yet_approved' ) ;
#250 = CARTESIAN_POINT ( 'NONE',  ( 0.000000000000000000, 0.000000000000000000, 7.000000000000000000 ) ) ;
#251 = ADVANCED_FACE ( 'NONE', ( #220 ), #91, .T. ) ;
#252 = CARTESIAN_POINT ( 'NONE',  ( 0.000000000000000000, 0.000000000000000000, 7.000000000000000000 ) ) ;
#253 = AXIS2_PLACEMENT_3D ( 'NONE', #174, #171, #49 ) ;
#254 = APPLICATION_CONTEXT ( 'configuration controlled 3d designs of mechanical parts and assemblies' ) ;
#255 = ORIENTED_EDGE ( 'NONE', *, *, #112, .F. ) ;
ENDSEC;
END-ISO-10303-21;
