ISO-10303-21;
HEADER;
FILE_DESCRIPTION (( 'STEP AP203' ),
    '1' );
FILE_NAME ('7a4e.STEP',
    '2023-02-13T12:08:57',
    ( '' ),
    ( '' ),
    'SwSTEP 2.0',
    'SolidWorks 2019',
    '' );
FILE_SCHEMA (( 'CONFIG_CONTROL_DESIGN' ));
ENDSEC;

DATA;
#1 = COORDINATED_UNIVERSAL_TIME_OFFSET ( 1, 0, .AHEAD. ) ;
#2 = EDGE_LOOP ( 'NONE', ( #159, #156 ) ) ;
#3 = ORIENTED_EDGE ( 'NONE', *, *, #224, .F. ) ;
#4 = COORDINATED_UNIVERSAL_TIME_OFFSET ( 1, 0, .AHEAD. ) ;
#5 = DIRECTION ( 'NONE',  ( 0.000000000000000000, 0.000000000000000000, 1.000000000000000000 ) ) ;
#6 = DIRECTION ( 'NONE',  ( 0.000000000000000000, 0.000000000000000000, 1.000000000000000000 ) ) ;
#7 = PRODUCT ( '7a4e', '7a4e', '', ( #143 ) ) ;
#8 = FACE_OUTER_BOUND ( 'NONE', #34, .T. ) ;
#9 = ORGANIZATION ( 'NEURÈENÝ', 'NEURÈENÝ', '' ) ;
#10 = ADVANCED_FACE ( 'NONE', ( #154 ), #57, .T. ) ;
#11 = DIRECTION ( 'NONE',  ( 1.000000000000000000, 0.000000000000000000, 0.000000000000000000 ) ) ;
#12 = AXIS2_PLACEMENT_3D ( 'NONE', #30, #13, #89 ) ;
#13 = DIRECTION ( 'NONE',  ( -0.000000000000000000, -0.000000000000000000, -1.000000000000000000 ) ) ;
#14 = CARTESIAN_POINT ( 'NONE',  ( 0.000000000000000000, 0.000000000000000000, 160.0000000000000000 ) ) ;
#15 = CYLINDRICAL_SURFACE ( 'NONE', #109, 7.000000000000000000 ) ;
#16 = CC_DESIGN_PERSON_AND_ORGANIZATION_ASSIGNMENT ( #217, #119, ( #226 ) ) ;
#17 = VERTEX_POINT ( 'NONE', #49 ) ;
#18 = CIRCLE ( 'NONE', #59, 4.500000000000000888 ) ;
#19 = ADVANCED_FACE ( 'NONE', ( #48 ), #31, .T. ) ;
#20 = DATE_AND_TIME ( #161, #240 ) ;
#21 = ORIENTED_EDGE ( 'NONE', *, *, #111, .F. ) ;
#22 = APPROVAL_DATE_TIME ( #182, #84 ) ;
#23 = VERTEX_POINT ( 'NONE', #183 ) ;
#24 = PERSON_AND_ORGANIZATION ( #90, #9 ) ;
#25 = CARTESIAN_POINT ( 'NONE',  ( 0.000000000000000000, 0.000000000000000000, 5.000000000000000000 ) ) ;
#26 = DIRECTION ( 'NONE',  ( 1.000000000000000000, 0.000000000000000000, 0.000000000000000000 ) ) ;
#27 = CIRCLE ( 'NONE', #191, 7.000000000000000000 ) ;
#28 = DIRECTION ( 'NONE',  ( 1.000000000000000000, 0.000000000000000000, -0.000000000000000000 ) ) ;
#29 = FACE_BOUND ( 'NONE', #136, .T. ) ;
#30 = CARTESIAN_POINT ( 'NONE',  ( 0.000000000000000000, 0.000000000000000000, 160.0000000000000000 ) ) ;
#31 = CYLINDRICAL_SURFACE ( 'NONE', #12, 4.500000000000000888 ) ;
#32 = CC_DESIGN_PERSON_AND_ORGANIZATION_ASSIGNMENT ( #196, #60, ( #185 ) ) ;
#33 = CARTESIAN_POINT ( 'NONE',  ( -7.000000000000000000, 0.000000000000000000, 5.000000000000000000 ) ) ;
#34 = EDGE_LOOP ( 'NONE', ( #21, #152, #199, #3 ) ) ;
#35 = CC_DESIGN_SECURITY_CLASSIFICATION ( #185, ( #226 ) ) ;
#36 = CALENDAR_DATE ( 2023, 13, 2 ) ;
#37 = CALENDAR_DATE ( 2023, 13, 2 ) ;
#38 = ORIENTED_EDGE ( 'NONE', *, *, #224, .T. ) ;
#39 = CARTESIAN_POINT ( 'NONE',  ( 0.000000000000000000, 0.000000000000000000, 0.000000000000000000 ) ) ;
#40 = ADVANCED_BREP_SHAPE_REPRESENTATION ( '7a4e', ( #141, #80 ), #202 ) ;
#41 = ORIENTED_EDGE ( 'NONE', *, *, #44, .F. ) ;
#42 = COORDINATED_UNIVERSAL_TIME_OFFSET ( 1, 0, .AHEAD. ) ;
#43 = PLANE ( 'NONE',  #232 ) ;
#44 = EDGE_CURVE ( 'NONE', #237, #177, #18, .T. ) ;
#45 = APPROVAL_STATUS ( 'not_yet_approved' ) ;
#46 = CC_DESIGN_APPROVAL ( #84, ( #226 ) ) ;
#47 = AXIS2_PLACEMENT_3D ( 'NONE', #168, #231, #52 ) ;
#48 = FACE_OUTER_BOUND ( 'NONE', #216, .T. ) ;
#49 = CARTESIAN_POINT ( 'NONE',  ( 7.000000000000000000, 8.572527594031473190E-16, 5.000000000000000000 ) ) ;
#50 = EDGE_CURVE ( 'NONE', #177, #237, #165, .T. ) ;
#51 = CARTESIAN_POINT ( 'NONE',  ( -7.000000000000000000, 0.000000000000000000, 0.000000000000000000 ) ) ;
#52 = DIRECTION ( 'NONE',  ( 1.000000000000000000, 0.000000000000000000, 0.000000000000000000 ) ) ;
#53 = AXIS2_PLACEMENT_3D ( 'NONE', #145, #222, #245 ) ;
#54 = LOCAL_TIME ( 13, 8, 57.00000000000000000, #42 ) ;
#55 = CARTESIAN_POINT ( 'NONE',  ( -7.000000000000000000, 0.000000000000000000, 5.000000000000000000 ) ) ;
#56 = ORIENTED_EDGE ( 'NONE', *, *, #111, .T. ) ;
#57 = PLANE ( 'NONE',  #140 ) ;
#58 =( NAMED_UNIT ( * ) PLANE_ANGLE_UNIT ( ) SI_UNIT ( $, .RADIAN. ) );
#59 = AXIS2_PLACEMENT_3D ( 'NONE', #91, #249, #246 ) ;
#60 = PERSON_AND_ORGANIZATION_ROLE ( 'classification_officer' ) ;
#61 = PERSON_AND_ORGANIZATION_ROLE ( 'creator' ) ;
#62 = LOCAL_TIME ( 13, 8, 57.00000000000000000, #123 ) ;
#63 = DIRECTION ( 'NONE',  ( 1.000000000000000000, 0.000000000000000000, 0.000000000000000000 ) ) ;
#64 = APPLICATION_PROTOCOL_DEFINITION ( 'international standard', 'config_control_design', 1994, #209 ) ;
#65 = APPROVAL_STATUS ( 'not_yet_approved' ) ;
#66 = EDGE_CURVE ( 'NONE', #23, #237, #171, .T. ) ;
#67 = CARTESIAN_POINT ( 'NONE',  ( 0.000000000000000000, 0.000000000000000000, 0.000000000000000000 ) ) ;
#68 = DIRECTION ( 'NONE',  ( 0.000000000000000000, 0.000000000000000000, 1.000000000000000000 ) ) ;
#69 = CC_DESIGN_DATE_AND_TIME_ASSIGNMENT ( #223, #122, ( #185 ) ) ;
#70 = CARTESIAN_POINT ( 'NONE',  ( -4.500000000000000888, 0.000000000000000000, 160.0000000000000000 ) ) ;
#71 = AXIS2_PLACEMENT_3D ( 'NONE', #92, #126, #11 ) ;
#72 = DIRECTION ( 'NONE',  ( -0.000000000000000000, -0.000000000000000000, -1.000000000000000000 ) ) ;
#73 = AXIS2_PLACEMENT_3D ( 'NONE', #176, #117, #214 ) ;
#74 = APPROVAL_PERSON_ORGANIZATION ( #242, #173, #106 ) ;
#75 = ORIENTED_EDGE ( 'NONE', *, *, #127, .F. ) ;
#76 = CLOSED_SHELL ( 'NONE', ( #100, #219, #244, #208, #200, #19, #10 ) ) ;
#77 = CC_DESIGN_PERSON_AND_ORGANIZATION_ASSIGNMENT ( #221, #61, ( #157 ) ) ;
#78 = VERTEX_POINT ( 'NONE', #70 ) ;
#79 = ORIENTED_EDGE ( 'NONE', *, *, #144, .F. ) ;
#80 = AXIS2_PLACEMENT_3D ( 'NONE', #39, #6, #26 ) ;
#81 = PERSON_AND_ORGANIZATION ( #90, #9 ) ;
#82 = CIRCLE ( 'NONE', #53, 4.500000000000000888 ) ;
#83 = APPROVAL_ROLE ( '' ) ;
#84 = APPROVAL ( #166, 'NEURÈENÝ' ) ;
#85 = APPROVAL_DATE_TIME ( #102, #173 ) ;
#86 = LINE ( 'NONE', #228, #186 ) ;
#87 = DATE_AND_TIME ( #158, #54 ) ;
#88 = CIRCLE ( 'NONE', #104, 7.000000000000000000 ) ;
#89 = DIRECTION ( 'NONE',  ( -1.000000000000000000, 0.000000000000000000, 0.000000000000000000 ) ) ;
#90 = PERSON ( 'NEURÈENÝ', 'NEURÈENÝ', 'NEURÈENÝ', ('NEURÈENÝ'), ('NEURÈENÝ'), ('NEURÈENÝ') ) ;
#91 = CARTESIAN_POINT ( 'NONE',  ( 0.000000000000000000, 0.000000000000000000, 5.000000000000000000 ) ) ;
#92 = CARTESIAN_POINT ( 'NONE',  ( 0.000000000000000000, 0.000000000000000000, 5.000000000000000000 ) ) ;
#93 = CARTESIAN_POINT ( 'NONE',  ( 0.000000000000000000, 0.000000000000000000, 5.000000000000000000 ) ) ;
#94 = LOCAL_TIME ( 13, 8, 57.00000000000000000, #1 ) ;
#95 = EDGE_LOOP ( 'NONE', ( #160, #213 ) ) ;
#96 = ORIENTED_EDGE ( 'NONE', *, *, #66, .T. ) ;
#97 = ORIENTED_EDGE ( 'NONE', *, *, #238, .T. ) ;
#98 = APPROVAL_PERSON_ORGANIZATION ( #81, #84, #83 ) ;
#99 = APPROVAL_DATE_TIME ( #20, #150 ) ;
#100 = ADVANCED_FACE ( 'NONE', ( #128 ), #110, .T. ) ;
#101 = COORDINATED_UNIVERSAL_TIME_OFFSET ( 1, 0, .AHEAD. ) ;
#102 = DATE_AND_TIME ( #138, #94 ) ;
#103 = DIRECTION ( 'NONE',  ( 0.000000000000000000, 0.000000000000000000, 1.000000000000000000 ) ) ;
#104 = AXIS2_PLACEMENT_3D ( 'NONE', #67, #131, #205 ) ;
#105 = APPROVAL_PERSON_ORGANIZATION ( #197, #150, #120 ) ;
#106 = APPROVAL_ROLE ( '' ) ;
#107 = CC_DESIGN_DATE_AND_TIME_ASSIGNMENT ( #87, #179, ( #157 ) ) ;
#108 = CIRCLE ( 'NONE', #47, 7.000000000000000000 ) ;
#109 = AXIS2_PLACEMENT_3D ( 'NONE', #93, #114, #190 ) ;
#110 = CYLINDRICAL_SURFACE ( 'NONE', #227, 4.500000000000000888 ) ;
#111 = EDGE_CURVE ( 'NONE', #17, #254, #211, .T. ) ;
#112 = DIRECTION ( 'NONE',  ( 0.000000000000000000, 0.000000000000000000, 1.000000000000000000 ) ) ;
#113 = DIRECTION ( 'NONE',  ( 0.000000000000000000, 0.000000000000000000, 1.000000000000000000 ) ) ;
#114 = DIRECTION ( 'NONE',  ( -0.000000000000000000, -0.000000000000000000, -1.000000000000000000 ) ) ;
#115 = CARTESIAN_POINT ( 'NONE',  ( 4.500000000000000888, 5.510910596163089556E-16, 5.000000000000000000 ) ) ;
#116 = FACE_OUTER_BOUND ( 'NONE', #220, .T. ) ;
#117 = DIRECTION ( 'NONE',  ( -0.000000000000000000, -0.000000000000000000, -1.000000000000000000 ) ) ;
#118 = ORIENTED_EDGE ( 'NONE', *, *, #169, .T. ) ;
#119 = PERSON_AND_ORGANIZATION_ROLE ( 'design_supplier' ) ;
#120 = APPROVAL_ROLE ( '' ) ;
#121 = VERTEX_POINT ( 'NONE', #187 ) ;
#122 = DATE_TIME_ROLE ( 'classification_date' ) ;
#123 = COORDINATED_UNIVERSAL_TIME_OFFSET ( 1, 0, .AHEAD. ) ;
#124 = CARTESIAN_POINT ( 'NONE',  ( 0.000000000000000000, 0.000000000000000000, 0.000000000000000000 ) ) ;
#125 = EDGE_CURVE ( 'NONE', #254, #17, #108, .T. ) ;
#126 = DIRECTION ( 'NONE',  ( 0.000000000000000000, 0.000000000000000000, 1.000000000000000000 ) ) ;
#127 = EDGE_CURVE ( 'NONE', #78, #23, #250, .T. ) ;
#128 = FACE_OUTER_BOUND ( 'NONE', #234, .T. ) ;
#129 = FACE_OUTER_BOUND ( 'NONE', #212, .T. ) ;
#130 = EDGE_CURVE ( 'NONE', #121, #175, #27, .T. ) ;
#131 = DIRECTION ( 'NONE',  ( 0.000000000000000000, 0.000000000000000000, 1.000000000000000000 ) ) ;
#132 = CARTESIAN_POINT ( 'NONE',  ( 0.000000000000000000, 0.000000000000000000, 160.0000000000000000 ) ) ;
#133 = AXIS2_PLACEMENT_3D ( 'NONE', #162, #5, #241 ) ;
#134 = ORIENTED_EDGE ( 'NONE', *, *, #125, .F. ) ;
#135 = PRODUCT_RELATED_PRODUCT_CATEGORY ( 'detail', '', ( #7 ) ) ;
#136 = EDGE_LOOP ( 'NONE', ( #233, #41 ) ) ;
#137 = ORIENTED_EDGE ( 'NONE', *, *, #125, .T. ) ;
#138 = CALENDAR_DATE ( 2023, 13, 2 ) ;
#139 = FACE_OUTER_BOUND ( 'NONE', #95, .T. ) ;
#140 = AXIS2_PLACEMENT_3D ( 'NONE', #132, #113, #28 ) ;
#141 = MANIFOLD_SOLID_BREP ( 'Pøidat vysunutím3', #76 ) ;
#142 = PERSON_AND_ORGANIZATION ( #90, #9 ) ;
#143 = MECHANICAL_CONTEXT ( 'NONE', #181, 'mechanical' ) ;
#144 = EDGE_CURVE ( 'NONE', #23, #78, #82, .T. ) ;
#145 = CARTESIAN_POINT ( 'NONE',  ( 0.000000000000000000, 0.000000000000000000, 160.0000000000000000 ) ) ;
#146 = DIRECTION ( 'NONE',  ( -0.000000000000000000, -0.000000000000000000, -1.000000000000000000 ) ) ;
#147 = CARTESIAN_POINT ( 'NONE',  ( 0.000000000000000000, 0.000000000000000000, 0.000000000000000000 ) ) ;
#148 = CC_DESIGN_PERSON_AND_ORGANIZATION_ASSIGNMENT ( #24, #163, ( #7 ) ) ;
#149 = DIRECTION ( 'NONE',  ( 1.000000000000000000, 0.000000000000000000, 0.000000000000000000 ) ) ;
#150 = APPROVAL ( #45, 'NEURÈENÝ' ) ;
#151 = LINE ( 'NONE', #33, #252 ) ;
#152 = ORIENTED_EDGE ( 'NONE', *, *, #192, .T. ) ;
#153 = APPLICATION_PROTOCOL_DEFINITION ( 'international standard', 'config_control_design', 1994, #181 ) ;
#154 = FACE_OUTER_BOUND ( 'NONE', #2, .T. ) ;
#155 =( LENGTH_UNIT ( ) NAMED_UNIT ( * ) SI_UNIT ( .MILLI., .METRE. ) );
#156 = ORIENTED_EDGE ( 'NONE', *, *, #144, .T. ) ;
#157 = PRODUCT_DEFINITION ( 'NEZNÁMÝ', '', #226, #194 ) ;
#158 = CALENDAR_DATE ( 2023, 13, 2 ) ;
#159 = ORIENTED_EDGE ( 'NONE', *, *, #127, .T. ) ;
#160 = ORIENTED_EDGE ( 'NONE', *, *, #169, .F. ) ;
#161 = CALENDAR_DATE ( 2023, 13, 2 ) ;
#162 = CARTESIAN_POINT ( 'NONE',  ( 0.000000000000000000, 0.000000000000000000, 160.0000000000000000 ) ) ;
#163 = PERSON_AND_ORGANIZATION_ROLE ( 'design_owner' ) ;
#164 = CC_DESIGN_PERSON_AND_ORGANIZATION_ASSIGNMENT ( #142, #236, ( #226 ) ) ;
#165 = CIRCLE ( 'NONE', #71, 4.500000000000000888 ) ;
#166 = APPROVAL_STATUS ( 'not_yet_approved' ) ;
#167 = CYLINDRICAL_SURFACE ( 'NONE', #73, 7.000000000000000000 ) ;
#168 = CARTESIAN_POINT ( 'NONE',  ( 0.000000000000000000, 0.000000000000000000, 5.000000000000000000 ) ) ;
#169 = EDGE_CURVE ( 'NONE', #175, #121, #88, .T. ) ;
#170 = DIRECTION ( 'NONE',  ( 1.000000000000000000, 0.000000000000000000, -0.000000000000000000 ) ) ;
#171 = LINE ( 'NONE', #229, #180 ) ;
#172 = DIRECTION ( 'NONE',  ( -0.000000000000000000, -0.000000000000000000, -1.000000000000000000 ) ) ;
#173 = APPROVAL ( #65, 'NEURÈENÝ' ) ;
#174 = LOCAL_TIME ( 13, 8, 57.00000000000000000, #4 ) ;
#175 = VERTEX_POINT ( 'NONE', #51 ) ;
#176 = CARTESIAN_POINT ( 'NONE',  ( 0.000000000000000000, 0.000000000000000000, 5.000000000000000000 ) ) ;
#177 = VERTEX_POINT ( 'NONE', #230 ) ;
#178 = SECURITY_CLASSIFICATION_LEVEL ( 'unclassified' ) ;
#179 = DATE_TIME_ROLE ( 'creation_date' ) ;
#180 = VECTOR ( 'NONE', #146, 1000.000000000000000 ) ;
#181 = APPLICATION_CONTEXT ( 'configuration controlled 3d designs of mechanical parts and assemblies' ) ;
#182 = DATE_AND_TIME ( #36, #174 ) ;
#183 = CARTESIAN_POINT ( 'NONE',  ( 4.500000000000000888, 5.510910596163089556E-16, 160.0000000000000000 ) ) ;
#184 = DIRECTION ( 'NONE',  ( 1.000000000000000000, 0.000000000000000000, -0.000000000000000000 ) ) ;
#185 = SECURITY_CLASSIFICATION ( '', '', #178 ) ;
#186 = VECTOR ( 'NONE', #188, 1000.000000000000000 ) ;
#187 = CARTESIAN_POINT ( 'NONE',  ( 7.000000000000000000, 8.572527594031473190E-16, 0.000000000000000000 ) ) ;
#188 = DIRECTION ( 'NONE',  ( -0.000000000000000000, -0.000000000000000000, -1.000000000000000000 ) ) ;
#189 = DIRECTION ( 'NONE',  ( -0.000000000000000000, -0.000000000000000000, -1.000000000000000000 ) ) ;
#190 = DIRECTION ( 'NONE',  ( -1.000000000000000000, 0.000000000000000000, 0.000000000000000000 ) ) ;
#191 = AXIS2_PLACEMENT_3D ( 'NONE', #147, #112, #63 ) ;
#192 = EDGE_CURVE ( 'NONE', #17, #121, #86, .T. ) ;
#193 = LINE ( 'NONE', #255, #204 ) ;
#194 = DESIGN_CONTEXT ( 'detailed design', #209, 'design' ) ;
#195 = ORIENTED_EDGE ( 'NONE', *, *, #238, .F. ) ;
#196 = PERSON_AND_ORGANIZATION ( #90, #9 ) ;
#197 = PERSON_AND_ORGANIZATION ( #90, #9 ) ;
#198 = ORIENTED_EDGE ( 'NONE', *, *, #192, .F. ) ;
#199 = ORIENTED_EDGE ( 'NONE', *, *, #130, .T. ) ;
#200 = ADVANCED_FACE ( 'NONE', ( #139 ), #43, .F. ) ;
#201 = DIRECTION ( 'NONE',  ( 0.000000000000000000, 0.000000000000000000, 1.000000000000000000 ) ) ;
#202 =( GEOMETRIC_REPRESENTATION_CONTEXT ( 3 ) GLOBAL_UNCERTAINTY_ASSIGNED_CONTEXT ( ( #210 ) ) GLOBAL_UNIT_ASSIGNED_CONTEXT ( ( #155, #58, #251 ) ) REPRESENTATION_CONTEXT ( 'NONE', 'WORKASPACE' ) );
#203 = PRODUCT_DEFINITION_SHAPE ( 'NONE', 'NONE',  #157 ) ;
#204 = VECTOR ( 'NONE', #72, 1000.000000000000000 ) ;
#205 = DIRECTION ( 'NONE',  ( 1.000000000000000000, 0.000000000000000000, 0.000000000000000000 ) ) ;
#206 = PLANE ( 'NONE',  #247 ) ;
#207 = DIRECTION ( 'NONE',  ( -1.000000000000000000, 0.000000000000000000, 0.000000000000000000 ) ) ;
#208 = ADVANCED_FACE ( 'NONE', ( #29, #129 ), #206, .T. ) ;
#209 = APPLICATION_CONTEXT ( 'configuration controlled 3d designs of mechanical parts and assemblies' ) ;
#210 = UNCERTAINTY_MEASURE_WITH_UNIT (LENGTH_MEASURE( 1.000000000000000082E-05 ), #155, 'distance_accuracy_value', 'NONE');
#211 = CIRCLE ( 'NONE', #215, 7.000000000000000000 ) ;
#212 = EDGE_LOOP ( 'NONE', ( #137, #56 ) ) ;
#213 = ORIENTED_EDGE ( 'NONE', *, *, #130, .F. ) ;
#214 = DIRECTION ( 'NONE',  ( -1.000000000000000000, 0.000000000000000000, 0.000000000000000000 ) ) ;
#215 = AXIS2_PLACEMENT_3D ( 'NONE', #243, #68, #149 ) ;
#216 = EDGE_LOOP ( 'NONE', ( #239, #75, #97, #235 ) ) ;
#217 = PERSON_AND_ORGANIZATION ( #90, #9 ) ;
#218 = ORIENTED_EDGE ( 'NONE', *, *, #44, .T. ) ;
#219 = ADVANCED_FACE ( 'NONE', ( #8 ), #167, .T. ) ;
#220 = EDGE_LOOP ( 'NONE', ( #198, #134, #38, #118 ) ) ;
#221 = PERSON_AND_ORGANIZATION ( #90, #9 ) ;
#222 = DIRECTION ( 'NONE',  ( 0.000000000000000000, 0.000000000000000000, 1.000000000000000000 ) ) ;
#223 = DATE_AND_TIME ( #37, #62 ) ;
#224 = EDGE_CURVE ( 'NONE', #254, #175, #151, .T. ) ;
#225 = SHAPE_DEFINITION_REPRESENTATION ( #203, #40 ) ;
#226 = PRODUCT_DEFINITION_FORMATION_WITH_SPECIFIED_SOURCE ( 'LIBOVOLNÝ', '', #7, .NOT_KNOWN. ) ;
#227 = AXIS2_PLACEMENT_3D ( 'NONE', #14, #189, #207 ) ;
#228 = CARTESIAN_POINT ( 'NONE',  ( 7.000000000000000000, 8.572527594031473190E-16, 5.000000000000000000 ) ) ;
#229 = CARTESIAN_POINT ( 'NONE',  ( 4.500000000000000888, 5.510910596163089556E-16, 160.0000000000000000 ) ) ;
#230 = CARTESIAN_POINT ( 'NONE',  ( -4.500000000000000888, 0.000000000000000000, 5.000000000000000000 ) ) ;
#231 = DIRECTION ( 'NONE',  ( 0.000000000000000000, 0.000000000000000000, 1.000000000000000000 ) ) ;
#232 = AXIS2_PLACEMENT_3D ( 'NONE', #124, #201, #170 ) ;
#233 = ORIENTED_EDGE ( 'NONE', *, *, #50, .F. ) ;
#234 = EDGE_LOOP ( 'NONE', ( #79, #96, #218, #195 ) ) ;
#235 = ORIENTED_EDGE ( 'NONE', *, *, #50, .T. ) ;
#236 = PERSON_AND_ORGANIZATION_ROLE ( 'creator' ) ;
#237 = VERTEX_POINT ( 'NONE', #115 ) ;
#238 = EDGE_CURVE ( 'NONE', #78, #177, #193, .T. ) ;
#239 = ORIENTED_EDGE ( 'NONE', *, *, #66, .F. ) ;
#240 = LOCAL_TIME ( 13, 8, 57.00000000000000000, #101 ) ;
#241 = DIRECTION ( 'NONE',  ( 1.000000000000000000, 0.000000000000000000, 0.000000000000000000 ) ) ;
#242 = PERSON_AND_ORGANIZATION ( #90, #9 ) ;
#243 = CARTESIAN_POINT ( 'NONE',  ( 0.000000000000000000, 0.000000000000000000, 5.000000000000000000 ) ) ;
#244 = ADVANCED_FACE ( 'NONE', ( #116 ), #15, .T. ) ;
#245 = DIRECTION ( 'NONE',  ( 1.000000000000000000, 0.000000000000000000, 0.000000000000000000 ) ) ;
#246 = DIRECTION ( 'NONE',  ( 1.000000000000000000, 0.000000000000000000, 0.000000000000000000 ) ) ;
#247 = AXIS2_PLACEMENT_3D ( 'NONE', #25, #103, #184 ) ;
#248 = CC_DESIGN_APPROVAL ( #150, ( #185 ) ) ;
#249 = DIRECTION ( 'NONE',  ( 0.000000000000000000, 0.000000000000000000, 1.000000000000000000 ) ) ;
#250 = CIRCLE ( 'NONE', #133, 4.500000000000000888 ) ;
#251 =( NAMED_UNIT ( * ) SI_UNIT ( $, .STERADIAN. ) SOLID_ANGLE_UNIT ( ) );
#252 = VECTOR ( 'NONE', #172, 1000.000000000000000 ) ;
#253 = CC_DESIGN_APPROVAL ( #173, ( #157 ) ) ;
#254 = VERTEX_POINT ( 'NONE', #55 ) ;
#255 = CARTESIAN_POINT ( 'NONE',  ( -4.500000000000000888, 0.000000000000000000, 160.0000000000000000 ) ) ;
ENDSEC;
END-ISO-10303-21;
