ISO-10303-21;
HEADER;
FILE_DESCRIPTION (( 'STEP AP203' ),
    '1' );
FILE_NAME ('0241.STEP',
    '2023-02-13T14:35:53',
    ( '' ),
    ( '' ),
    'SwSTEP 2.0',
    'SolidWorks 2019',
    '' );
FILE_SCHEMA (( 'CONFIG_CONTROL_DESIGN' ));
ENDSEC;

DATA;
#1 = ORIENTED_EDGE ( 'NONE', *, *, #49, .T. ) ;
#2 = PERSON_AND_ORGANIZATION ( #9, #144 ) ;
#3 = DIRECTION ( 'NONE',  ( -0.000000000000000000, -0.000000000000000000, -1.000000000000000000 ) ) ;
#4 = CC_DESIGN_APPROVAL ( #129, ( #32 ) ) ;
#5 = FACE_OUTER_BOUND ( 'NONE', #228, .T. ) ;
#6 = ADVANCED_FACE ( 'NONE', ( #74 ), #93, .T. ) ;
#7 = DIRECTION ( 'NONE',  ( 1.000000000000000000, 0.000000000000000000, -0.000000000000000000 ) ) ;
#8 = AXIS2_PLACEMENT_3D ( 'NONE', #244, #33, #168 ) ;
#9 = PERSON ( 'NEURÈENÝ', 'NEURÈENÝ', 'NEURÈENÝ', ('NEURÈENÝ'), ('NEURÈENÝ'), ('NEURÈENÝ') ) ;
#10 = CARTESIAN_POINT ( 'NONE',  ( 0.000000000000000000, 0.000000000000000000, 3.000000000000000000 ) ) ;
#11 = CARTESIAN_POINT ( 'NONE',  ( 2.600000000000000089, 3.184081677783117698E-16, 125.0000000000000000 ) ) ;
#12 = DIRECTION ( 'NONE',  ( 1.000000000000000000, 0.000000000000000000, 0.000000000000000000 ) ) ;
#13 = CARTESIAN_POINT ( 'NONE',  ( 5.000000000000000000, 6.123233995736766282E-16, 0.000000000000000000 ) ) ;
#14 = DIRECTION ( 'NONE',  ( 0.000000000000000000, 0.000000000000000000, 1.000000000000000000 ) ) ;
#15 = APPLICATION_PROTOCOL_DEFINITION ( 'international standard', 'config_control_design', 1994, #254 ) ;
#16 = VERTEX_POINT ( 'NONE', #13 ) ;
#17 = DIRECTION ( 'NONE',  ( 1.000000000000000000, 0.000000000000000000, 0.000000000000000000 ) ) ;
#18 = ORIENTED_EDGE ( 'NONE', *, *, #152, .T. ) ;
#19 = LOCAL_TIME ( 15, 35, 53.00000000000000000, #30 ) ;
#20 = DIRECTION ( 'NONE',  ( 1.000000000000000000, 0.000000000000000000, 0.000000000000000000 ) ) ;
#21 = APPROVAL ( #66, 'NEURÈENÝ' ) ;
#22 = CALENDAR_DATE ( 2023, 13, 2 ) ;
#23 = CARTESIAN_POINT ( 'NONE',  ( 0.000000000000000000, 0.000000000000000000, 0.000000000000000000 ) ) ;
#24 = ORIENTED_EDGE ( 'NONE', *, *, #176, .T. ) ;
#25 = PERSON_AND_ORGANIZATION ( #9, #144 ) ;
#26 = APPROVAL_ROLE ( '' ) ;
#27 = CIRCLE ( 'NONE', #73, 5.000000000000000000 ) ;
#28 = PERSON_AND_ORGANIZATION_ROLE ( 'design_supplier' ) ;
#29 = ADVANCED_FACE ( 'NONE', ( #178 ), #37, .T. ) ;
#30 = COORDINATED_UNIVERSAL_TIME_OFFSET ( 1, 0, .AHEAD. ) ;
#31 = COORDINATED_UNIVERSAL_TIME_OFFSET ( 1, 0, .AHEAD. ) ;
#32 = PRODUCT_DEFINITION_FORMATION_WITH_SPECIFIED_SOURCE ( 'LIBOVOLNÝ', '', #107, .NOT_KNOWN. ) ;
#33 = DIRECTION ( 'NONE',  ( 0.000000000000000000, 0.000000000000000000, 1.000000000000000000 ) ) ;
#34 = DIRECTION ( 'NONE',  ( -0.000000000000000000, -0.000000000000000000, -1.000000000000000000 ) ) ;
#35 = CC_DESIGN_APPROVAL ( #114, ( #58 ) ) ;
#36 = CC_DESIGN_PERSON_AND_ORGANIZATION_ASSIGNMENT ( #123, #203, ( #32 ) ) ;
#37 = CYLINDRICAL_SURFACE ( 'NONE', #54, 2.600000000000000089 ) ;
#38 = CARTESIAN_POINT ( 'NONE',  ( 0.000000000000000000, 0.000000000000000000, 125.0000000000000000 ) ) ;
#39 = CARTESIAN_POINT ( 'NONE',  ( -5.000000000000000000, 0.000000000000000000, 0.000000000000000000 ) ) ;
#40 = VERTEX_POINT ( 'NONE', #197 ) ;
#41 = CC_DESIGN_PERSON_AND_ORGANIZATION_ASSIGNMENT ( #252, #200, ( #58 ) ) ;
#42 = AXIS2_PLACEMENT_3D ( 'NONE', #23, #117, #20 ) ;
#43 = CIRCLE ( 'NONE', #81, 5.000000000000000000 ) ;
#44 = DIRECTION ( 'NONE',  ( 0.000000000000000000, 0.000000000000000000, 1.000000000000000000 ) ) ;
#45 = ORIENTED_EDGE ( 'NONE', *, *, #49, .F. ) ;
#46 = COORDINATED_UNIVERSAL_TIME_OFFSET ( 1, 0, .AHEAD. ) ;
#47 = CARTESIAN_POINT ( 'NONE',  ( 0.000000000000000000, 0.000000000000000000, 125.0000000000000000 ) ) ;
#48 = SHAPE_DEFINITION_REPRESENTATION ( #211, #192 ) ;
#49 = EDGE_CURVE ( 'NONE', #177, #82, #43, .T. ) ;
#50 = CARTESIAN_POINT ( 'NONE',  ( 0.000000000000000000, 0.000000000000000000, 0.000000000000000000 ) ) ;
#51 = CYLINDRICAL_SURFACE ( 'NONE', #101, 2.600000000000000089 ) ;
#52 = ORIENTED_EDGE ( 'NONE', *, *, #106, .F. ) ;
#53 = ORIENTED_EDGE ( 'NONE', *, *, #176, .F. ) ;
#54 = AXIS2_PLACEMENT_3D ( 'NONE', #38, #172, #249 ) ;
#55 = DESIGN_CONTEXT ( 'detailed design', #254, 'design' ) ;
#56 = CARTESIAN_POINT ( 'NONE',  ( 0.000000000000000000, 0.000000000000000000, 3.000000000000000000 ) ) ;
#57 = ORIENTED_EDGE ( 'NONE', *, *, #94, .F. ) ;
#58 = PRODUCT_DEFINITION ( 'NEZNÁMÝ', '', #32, #55 ) ;
#59 = CARTESIAN_POINT ( 'NONE',  ( 0.000000000000000000, 0.000000000000000000, 0.000000000000000000 ) ) ;
#60 = COORDINATED_UNIVERSAL_TIME_OFFSET ( 1, 0, .AHEAD. ) ;
#61 = EDGE_LOOP ( 'NONE', ( #185, #239 ) ) ;
#62 = DATE_TIME_ROLE ( 'creation_date' ) ;
#63 = CIRCLE ( 'NONE', #76, 5.000000000000000000 ) ;
#64 = ORIENTED_EDGE ( 'NONE', *, *, #182, .F. ) ;
#65 = DATE_AND_TIME ( #71, #242 ) ;
#66 = APPROVAL_STATUS ( 'not_yet_approved' ) ;
#67 =( LENGTH_UNIT ( ) NAMED_UNIT ( * ) SI_UNIT ( .MILLI., .METRE. ) );
#68 = VERTEX_POINT ( 'NONE', #133 ) ;
#69 = COORDINATED_UNIVERSAL_TIME_OFFSET ( 1, 0, .AHEAD. ) ;
#70 = CC_DESIGN_PERSON_AND_ORGANIZATION_ASSIGNMENT ( #2, #237, ( #132 ) ) ;
#71 = CALENDAR_DATE ( 2023, 13, 2 ) ;
#72 = DIRECTION ( 'NONE',  ( 0.000000000000000000, 0.000000000000000000, 1.000000000000000000 ) ) ;
#73 = AXIS2_PLACEMENT_3D ( 'NONE', #222, #238, #97 ) ;
#74 = FACE_OUTER_BOUND ( 'NONE', #125, .T. ) ;
#75 = EDGE_LOOP ( 'NONE', ( #255, #64 ) ) ;
#76 = AXIS2_PLACEMENT_3D ( 'NONE', #248, #157, #214 ) ;
#77 = DIRECTION ( 'NONE',  ( 0.000000000000000000, 0.000000000000000000, 1.000000000000000000 ) ) ;
#78 = AXIS2_PLACEMENT_3D ( 'NONE', #10, #44, #201 ) ;
#79 = CARTESIAN_POINT ( 'NONE',  ( -5.000000000000000000, 0.000000000000000000, 3.000000000000000000 ) ) ;
#80 = APPROVAL_DATE_TIME ( #120, #114 ) ;
#81 = AXIS2_PLACEMENT_3D ( 'NONE', #56, #14, #90 ) ;
#82 = VERTEX_POINT ( 'NONE', #79 ) ;
#83 = CIRCLE ( 'NONE', #42, 5.000000000000000000 ) ;
#84 = AXIS2_PLACEMENT_3D ( 'NONE', #227, #206, #105 ) ;
#85 = CC_DESIGN_DATE_AND_TIME_ASSIGNMENT ( #126, #150, ( #132 ) ) ;
#86 = CYLINDRICAL_SURFACE ( 'NONE', #84, 5.000000000000000000 ) ;
#87 = EDGE_LOOP ( 'NONE', ( #52, #199, #24, #232 ) ) ;
#88 = DIRECTION ( 'NONE',  ( 0.000000000000000000, 0.000000000000000000, 1.000000000000000000 ) ) ;
#89 = EDGE_CURVE ( 'NONE', #82, #156, #109, .T. ) ;
#90 = DIRECTION ( 'NONE',  ( 1.000000000000000000, 0.000000000000000000, 0.000000000000000000 ) ) ;
#91 = DIRECTION ( 'NONE',  ( -0.000000000000000000, -0.000000000000000000, -1.000000000000000000 ) ) ;
#92 = PERSON_AND_ORGANIZATION ( #9, #144 ) ;
#93 = CYLINDRICAL_SURFACE ( 'NONE', #163, 5.000000000000000000 ) ;
#94 = EDGE_CURVE ( 'NONE', #40, #145, #194, .T. ) ;
#95 = AXIS2_PLACEMENT_3D ( 'NONE', #59, #88, #137 ) ;
#96 = LOCAL_TIME ( 15, 35, 53.00000000000000000, #46 ) ;
#97 = DIRECTION ( 'NONE',  ( 1.000000000000000000, 0.000000000000000000, 0.000000000000000000 ) ) ;
#98 = CC_DESIGN_PERSON_AND_ORGANIZATION_ASSIGNMENT ( #116, #162, ( #107 ) ) ;
#99 = MECHANICAL_CONTEXT ( 'NONE', #147, 'mechanical' ) ;
#100 = PERSON_AND_ORGANIZATION ( #9, #144 ) ;
#101 = AXIS2_PLACEMENT_3D ( 'NONE', #124, #130, #212 ) ;
#102 = FACE_OUTER_BOUND ( 'NONE', #87, .T. ) ;
#103 = CIRCLE ( 'NONE', #215, 2.600000000000000089 ) ;
#104 = CC_DESIGN_APPROVAL ( #21, ( #132 ) ) ;
#105 = DIRECTION ( 'NONE',  ( -1.000000000000000000, 0.000000000000000000, 0.000000000000000000 ) ) ;
#106 = EDGE_CURVE ( 'NONE', #40, #68, #103, .T. ) ;
#107 = PRODUCT ( '0241', '0241', '', ( #99 ) ) ;
#108 = LINE ( 'NONE', #246, #241 ) ;
#109 = LINE ( 'NONE', #154, #183 ) ;
#110 = ADVANCED_FACE ( 'NONE', ( #217 ), #173, .F. ) ;
#111 = DIRECTION ( 'NONE',  ( 1.000000000000000000, 0.000000000000000000, 0.000000000000000000 ) ) ;
#112 = APPROVAL_STATUS ( 'not_yet_approved' ) ;
#113 = FACE_BOUND ( 'NONE', #223, .T. ) ;
#114 = APPROVAL ( #221, 'NEURÈENÝ' ) ;
#115 = EDGE_LOOP ( 'NONE', ( #57, #202, #136, #236 ) ) ;
#116 = PERSON_AND_ORGANIZATION ( #9, #144 ) ;
#117 = DIRECTION ( 'NONE',  ( 0.000000000000000000, 0.000000000000000000, 1.000000000000000000 ) ) ;
#118 = CIRCLE ( 'NONE', #189, 2.600000000000000089 ) ;
#119 =( GEOMETRIC_REPRESENTATION_CONTEXT ( 3 ) GLOBAL_UNCERTAINTY_ASSIGNED_CONTEXT ( ( #135 ) ) GLOBAL_UNIT_ASSIGNED_CONTEXT ( ( #67, #243, #209 ) ) REPRESENTATION_CONTEXT ( 'NONE', 'WORKASPACE' ) );
#120 = DATE_AND_TIME ( #142, #96 ) ;
#121 = MANIFOLD_SOLID_BREP ( 'Pøidat vysunutím3', #235 ) ;
#122 = VERTEX_POINT ( 'NONE', #134 ) ;
#123 = PERSON_AND_ORGANIZATION ( #9, #144 ) ;
#124 = CARTESIAN_POINT ( 'NONE',  ( 0.000000000000000000, 0.000000000000000000, 125.0000000000000000 ) ) ;
#125 = EDGE_LOOP ( 'NONE', ( #45, #166, #149, #225 ) ) ;
#126 = DATE_AND_TIME ( #240, #196 ) ;
#127 = EDGE_CURVE ( 'NONE', #68, #122, #108, .T. ) ;
#128 = LOCAL_TIME ( 15, 35, 53.00000000000000000, #60 ) ;
#129 = APPROVAL ( #112, 'NEURÈENÝ' ) ;
#130 = DIRECTION ( 'NONE',  ( -0.000000000000000000, -0.000000000000000000, -1.000000000000000000 ) ) ;
#131 = CARTESIAN_POINT ( 'NONE',  ( 0.000000000000000000, 0.000000000000000000, 125.0000000000000000 ) ) ;
#132 = SECURITY_CLASSIFICATION ( '', '', #187 ) ;
#133 = CARTESIAN_POINT ( 'NONE',  ( -2.600000000000000089, 0.000000000000000000, 125.0000000000000000 ) ) ;
#134 = CARTESIAN_POINT ( 'NONE',  ( -2.600000000000000089, 0.000000000000000000, 3.000000000000000000 ) ) ;
#135 = UNCERTAINTY_MEASURE_WITH_UNIT (LENGTH_MEASURE( 1.000000000000000082E-05 ), #67, 'distance_accuracy_value', 'NONE');
#136 = ORIENTED_EDGE ( 'NONE', *, *, #127, .T. ) ;
#137 = DIRECTION ( 'NONE',  ( 1.000000000000000000, 0.000000000000000000, -0.000000000000000000 ) ) ;
#138 = APPROVAL_PERSON_ORGANIZATION ( #92, #114, #26 ) ;
#139 = CARTESIAN_POINT ( 'NONE',  ( 5.000000000000000000, 6.123233995736766282E-16, 3.000000000000000000 ) ) ;
#140 = DATE_AND_TIME ( #22, #128 ) ;
#141 = ORIENTED_EDGE ( 'NONE', *, *, #152, .F. ) ;
#142 = CALENDAR_DATE ( 2023, 13, 2 ) ;
#143 = EDGE_CURVE ( 'NONE', #68, #40, #118, .T. ) ;
#144 = ORGANIZATION ( 'NEURÈENÝ', 'NEURÈENÝ', '' ) ;
#145 = VERTEX_POINT ( 'NONE', #175 ) ;
#146 = AXIS2_PLACEMENT_3D ( 'NONE', #184, #165, #17 ) ;
#147 = APPLICATION_CONTEXT ( 'configuration controlled 3d designs of mechanical parts and assemblies' ) ;
#148 = FACE_OUTER_BOUND ( 'NONE', #61, .T. ) ;
#149 = ORIENTED_EDGE ( 'NONE', *, *, #182, .T. ) ;
#150 = DATE_TIME_ROLE ( 'classification_date' ) ;
#151 = LINE ( 'NONE', #171, #219 ) ;
#152 = EDGE_CURVE ( 'NONE', #82, #177, #63, .T. ) ;
#153 = APPROVAL_PERSON_ORGANIZATION ( #218, #129, #164 ) ;
#154 = CARTESIAN_POINT ( 'NONE',  ( -5.000000000000000000, 0.000000000000000000, 3.000000000000000000 ) ) ;
#155 = ORIENTED_EDGE ( 'NONE', *, *, #186, .F. ) ;
#156 = VERTEX_POINT ( 'NONE', #39 ) ;
#157 = DIRECTION ( 'NONE',  ( 0.000000000000000000, 0.000000000000000000, 1.000000000000000000 ) ) ;
#158 = DIRECTION ( 'NONE',  ( -0.000000000000000000, -0.000000000000000000, -1.000000000000000000 ) ) ;
#159 = ADVANCED_FACE ( 'NONE', ( #113, #198 ), #193, .T. ) ;
#160 = ORIENTED_EDGE ( 'NONE', *, *, #250, .F. ) ;
#161 = CC_DESIGN_DATE_AND_TIME_ASSIGNMENT ( #140, #62, ( #58 ) ) ;
#162 = PERSON_AND_ORGANIZATION_ROLE ( 'design_owner' ) ;
#163 = AXIS2_PLACEMENT_3D ( 'NONE', #245, #158, #229 ) ;
#164 = APPROVAL_ROLE ( '' ) ;
#165 = DIRECTION ( 'NONE',  ( 0.000000000000000000, 0.000000000000000000, 1.000000000000000000 ) ) ;
#166 = ORIENTED_EDGE ( 'NONE', *, *, #186, .T. ) ;
#167 = EDGE_CURVE ( 'NONE', #156, #16, #83, .T. ) ;
#168 = DIRECTION ( 'NONE',  ( 1.000000000000000000, 0.000000000000000000, 0.000000000000000000 ) ) ;
#169 = PLANE ( 'NONE',  #247 ) ;
#170 = PRODUCT_RELATED_PRODUCT_CATEGORY ( 'detail', '', ( #107 ) ) ;
#171 = CARTESIAN_POINT ( 'NONE',  ( 5.000000000000000000, 6.123233995736766282E-16, 3.000000000000000000 ) ) ;
#172 = DIRECTION ( 'NONE',  ( -0.000000000000000000, -0.000000000000000000, -1.000000000000000000 ) ) ;
#173 = PLANE ( 'NONE',  #95 ) ;
#174 = APPROVAL_PERSON_ORGANIZATION ( #100, #21, #207 ) ;
#175 = CARTESIAN_POINT ( 'NONE',  ( 2.600000000000000089, 3.184081677783117698E-16, 3.000000000000000000 ) ) ;
#176 = EDGE_CURVE ( 'NONE', #145, #122, #204, .T. ) ;
#177 = VERTEX_POINT ( 'NONE', #139 ) ;
#178 = FACE_OUTER_BOUND ( 'NONE', #115, .T. ) ;
#179 = VECTOR ( 'NONE', #91, 1000.000000000000000 ) ;
#180 = AXIS2_PLACEMENT_3D ( 'NONE', #50, #210, #12 ) ;
#181 = ORIENTED_EDGE ( 'NONE', *, *, #167, .T. ) ;
#182 = EDGE_CURVE ( 'NONE', #16, #156, #27, .T. ) ;
#183 = VECTOR ( 'NONE', #233, 1000.000000000000000 ) ;
#184 = CARTESIAN_POINT ( 'NONE',  ( 0.000000000000000000, 0.000000000000000000, 3.000000000000000000 ) ) ;
#185 = ORIENTED_EDGE ( 'NONE', *, *, #143, .T. ) ;
#186 = EDGE_CURVE ( 'NONE', #177, #16, #151, .T. ) ;
#187 = SECURITY_CLASSIFICATION_LEVEL ( 'unclassified' ) ;
#188 = CALENDAR_DATE ( 2023, 13, 2 ) ;
#189 = AXIS2_PLACEMENT_3D ( 'NONE', #131, #220, #111 ) ;
#190 = CC_DESIGN_SECURITY_CLASSIFICATION ( #132, ( #32 ) ) ;
#191 = APPLICATION_PROTOCOL_DEFINITION ( 'international standard', 'config_control_design', 1994, #147 ) ;
#192 = ADVANCED_BREP_SHAPE_REPRESENTATION ( '0241', ( #121, #180 ), #119 ) ;
#193 = PLANE ( 'NONE',  #78 ) ;
#194 = LINE ( 'NONE', #11, #179 ) ;
#195 = ADVANCED_FACE ( 'NONE', ( #148 ), #169, .T. ) ;
#196 = LOCAL_TIME ( 15, 35, 53.00000000000000000, #69 ) ;
#197 = CARTESIAN_POINT ( 'NONE',  ( 2.600000000000000089, 3.184081677783117698E-16, 125.0000000000000000 ) ) ;
#198 = FACE_OUTER_BOUND ( 'NONE', #224, .T. ) ;
#199 = ORIENTED_EDGE ( 'NONE', *, *, #94, .T. ) ;
#200 = PERSON_AND_ORGANIZATION_ROLE ( 'creator' ) ;
#201 = DIRECTION ( 'NONE',  ( 1.000000000000000000, 0.000000000000000000, -0.000000000000000000 ) ) ;
#202 = ORIENTED_EDGE ( 'NONE', *, *, #143, .F. ) ;
#203 = PERSON_AND_ORGANIZATION_ROLE ( 'creator' ) ;
#204 = CIRCLE ( 'NONE', #146, 2.600000000000000089 ) ;
#205 = APPROVAL_DATE_TIME ( #65, #129 ) ;
#206 = DIRECTION ( 'NONE',  ( -0.000000000000000000, -0.000000000000000000, -1.000000000000000000 ) ) ;
#207 = APPROVAL_ROLE ( '' ) ;
#208 = DATE_AND_TIME ( #188, #19 ) ;
#209 =( NAMED_UNIT ( * ) SI_UNIT ( $, .STERADIAN. ) SOLID_ANGLE_UNIT ( ) );
#210 = DIRECTION ( 'NONE',  ( 0.000000000000000000, 0.000000000000000000, 1.000000000000000000 ) ) ;
#211 = PRODUCT_DEFINITION_SHAPE ( 'NONE', 'NONE',  #58 ) ;
#212 = DIRECTION ( 'NONE',  ( -1.000000000000000000, 0.000000000000000000, 0.000000000000000000 ) ) ;
#213 = ADVANCED_FACE ( 'NONE', ( #5 ), #86, .T. ) ;
#214 = DIRECTION ( 'NONE',  ( 1.000000000000000000, 0.000000000000000000, 0.000000000000000000 ) ) ;
#215 = AXIS2_PLACEMENT_3D ( 'NONE', #216, #77, #231 ) ;
#216 = CARTESIAN_POINT ( 'NONE',  ( 0.000000000000000000, 0.000000000000000000, 125.0000000000000000 ) ) ;
#217 = FACE_OUTER_BOUND ( 'NONE', #75, .T. ) ;
#218 = PERSON_AND_ORGANIZATION ( #9, #144 ) ;
#219 = VECTOR ( 'NONE', #3, 1000.000000000000000 ) ;
#220 = DIRECTION ( 'NONE',  ( 0.000000000000000000, 0.000000000000000000, 1.000000000000000000 ) ) ;
#221 = APPROVAL_STATUS ( 'not_yet_approved' ) ;
#222 = CARTESIAN_POINT ( 'NONE',  ( 0.000000000000000000, 0.000000000000000000, 0.000000000000000000 ) ) ;
#223 = EDGE_LOOP ( 'NONE', ( #160, #53 ) ) ;
#224 = EDGE_LOOP ( 'NONE', ( #18, #1 ) ) ;
#225 = ORIENTED_EDGE ( 'NONE', *, *, #89, .F. ) ;
#226 = APPROVAL_DATE_TIME ( #208, #21 ) ;
#227 = CARTESIAN_POINT ( 'NONE',  ( 0.000000000000000000, 0.000000000000000000, 3.000000000000000000 ) ) ;
#228 = EDGE_LOOP ( 'NONE', ( #155, #141, #251, #181 ) ) ;
#229 = DIRECTION ( 'NONE',  ( -1.000000000000000000, 0.000000000000000000, 0.000000000000000000 ) ) ;
#230 = CIRCLE ( 'NONE', #8, 2.600000000000000089 ) ;
#231 = DIRECTION ( 'NONE',  ( 1.000000000000000000, 0.000000000000000000, 0.000000000000000000 ) ) ;
#232 = ORIENTED_EDGE ( 'NONE', *, *, #127, .F. ) ;
#233 = DIRECTION ( 'NONE',  ( -0.000000000000000000, -0.000000000000000000, -1.000000000000000000 ) ) ;
#234 = ADVANCED_FACE ( 'NONE', ( #102 ), #51, .T. ) ;
#235 = CLOSED_SHELL ( 'NONE', ( #234, #6, #213, #159, #110, #29, #195 ) ) ;
#236 = ORIENTED_EDGE ( 'NONE', *, *, #250, .T. ) ;
#237 = PERSON_AND_ORGANIZATION_ROLE ( 'classification_officer' ) ;
#238 = DIRECTION ( 'NONE',  ( 0.000000000000000000, 0.000000000000000000, 1.000000000000000000 ) ) ;
#239 = ORIENTED_EDGE ( 'NONE', *, *, #106, .T. ) ;
#240 = CALENDAR_DATE ( 2023, 13, 2 ) ;
#241 = VECTOR ( 'NONE', #34, 1000.000000000000000 ) ;
#242 = LOCAL_TIME ( 15, 35, 53.00000000000000000, #31 ) ;
#243 =( NAMED_UNIT ( * ) PLANE_ANGLE_UNIT ( ) SI_UNIT ( $, .RADIAN. ) );
#244 = CARTESIAN_POINT ( 'NONE',  ( 0.000000000000000000, 0.000000000000000000, 3.000000000000000000 ) ) ;
#245 = CARTESIAN_POINT ( 'NONE',  ( 0.000000000000000000, 0.000000000000000000, 3.000000000000000000 ) ) ;
#246 = CARTESIAN_POINT ( 'NONE',  ( -2.600000000000000089, 0.000000000000000000, 125.0000000000000000 ) ) ;
#247 = AXIS2_PLACEMENT_3D ( 'NONE', #47, #72, #7 ) ;
#248 = CARTESIAN_POINT ( 'NONE',  ( 0.000000000000000000, 0.000000000000000000, 3.000000000000000000 ) ) ;
#249 = DIRECTION ( 'NONE',  ( -1.000000000000000000, 0.000000000000000000, 0.000000000000000000 ) ) ;
#250 = EDGE_CURVE ( 'NONE', #122, #145, #230, .T. ) ;
#251 = ORIENTED_EDGE ( 'NONE', *, *, #89, .T. ) ;
#252 = PERSON_AND_ORGANIZATION ( #9, #144 ) ;
#253 = CC_DESIGN_PERSON_AND_ORGANIZATION_ASSIGNMENT ( #25, #28, ( #32 ) ) ;
#254 = APPLICATION_CONTEXT ( 'configuration controlled 3d designs of mechanical parts and assemblies' ) ;
#255 = ORIENTED_EDGE ( 'NONE', *, *, #167, .F. ) ;
ENDSEC;
END-ISO-10303-21;
