ISO-10303-21;
HEADER;
FILE_DESCRIPTION (( 'STEP AP203' ),
    '1' );
FILE_NAME ('6c95.STEP',
    '2023-01-31T14:30:33',
    ( '' ),
    ( '' ),
    'SwSTEP 2.0',
    'SolidWorks 2019',
    '' );
FILE_SCHEMA (( 'CONFIG_CONTROL_DESIGN' ));
ENDSEC;

DATA;
#1 = CIRCLE ( 'NONE', #242, 0.5000000000000000000 ) ;
#2 = ADVANCED_FACE ( 'NONE', ( #20 ), #250, .F. ) ;
#3 = PERSON_AND_ORGANIZATION_ROLE ( 'design_owner' ) ;
#4 = COORDINATED_UNIVERSAL_TIME_OFFSET ( 1, 0, .AHEAD. ) ;
#5 = ORIENTED_EDGE ( 'NONE', *, *, #79, .F. ) ;
#6 = PLANE ( 'NONE',  #9 ) ;
#7 = EDGE_LOOP ( 'NONE', ( #81, #97 ) ) ;
#8 = AXIS2_PLACEMENT_3D ( 'NONE', #232, #67, #144 ) ;
#9 = AXIS2_PLACEMENT_3D ( 'NONE', #99, #95, #214 ) ;
#10 = EDGE_LOOP ( 'NONE', ( #48, #101, #22, #5 ) ) ;
#11 = PERSON_AND_ORGANIZATION_ROLE ( 'creator' ) ;
#12 = CC_DESIGN_PERSON_AND_ORGANIZATION_ASSIGNMENT ( #204, #11, ( #187 ) ) ;
#13 = ORIENTED_EDGE ( 'NONE', *, *, #118, .T. ) ;
#14 = CARTESIAN_POINT ( 'NONE',  ( 0.5000000000000000000, 6.123233995736766036E-17, 100.0000000000000000 ) ) ;
#15 = PERSON_AND_ORGANIZATION ( #235, #166 ) ;
#16 = CARTESIAN_POINT ( 'NONE',  ( 0.000000000000000000, 0.000000000000000000, 1.199999999999999956 ) ) ;
#17 = ADVANCED_FACE ( 'NONE', ( #126 ), #53, .T. ) ;
#18 = APPLICATION_CONTEXT ( 'configuration controlled 3d designs of mechanical parts and assemblies' ) ;
#19 = APPROVAL_DATE_TIME ( #83, #173 ) ;
#20 = FACE_OUTER_BOUND ( 'NONE', #165, .T. ) ;
#21 = CARTESIAN_POINT ( 'NONE',  ( 0.000000000000000000, 0.000000000000000000, 0.000000000000000000 ) ) ;
#22 = ORIENTED_EDGE ( 'NONE', *, *, #149, .T. ) ;
#23 = AXIS2_PLACEMENT_3D ( 'NONE', #188, #252, #229 ) ;
#24 = DIRECTION ( 'NONE',  ( -0.000000000000000000, -0.000000000000000000, -1.000000000000000000 ) ) ;
#25 = EDGE_LOOP ( 'NONE', ( #247, #13 ) ) ;
#26 = CARTESIAN_POINT ( 'NONE',  ( 0.5000000000000000000, 6.123233995736766036E-17, 1.199999999999999956 ) ) ;
#27 = ORIENTED_EDGE ( 'NONE', *, *, #118, .F. ) ;
#28 = CC_DESIGN_PERSON_AND_ORGANIZATION_ASSIGNMENT ( #116, #96, ( #246 ) ) ;
#29 = AXIS2_PLACEMENT_3D ( 'NONE', #21, #213, #71 ) ;
#30 = CIRCLE ( 'NONE', #146, 0.5000000000000000000 ) ;
#31 = PERSON_AND_ORGANIZATION_ROLE ( 'classification_officer' ) ;
#32 = DIRECTION ( 'NONE',  ( 1.000000000000000000, 0.000000000000000000, 0.000000000000000000 ) ) ;
#33 = EDGE_CURVE ( 'NONE', #111, #183, #86, .T. ) ;
#34 = CARTESIAN_POINT ( 'NONE',  ( 0.000000000000000000, 0.000000000000000000, 100.0000000000000000 ) ) ;
#35 = LINE ( 'NONE', #191, #120 ) ;
#36 = CYLINDRICAL_SURFACE ( 'NONE', #196, 0.5000000000000000000 ) ;
#37 = CARTESIAN_POINT ( 'NONE',  ( -0.5000000000000000000, 0.000000000000000000, 1.199999999999999956 ) ) ;
#38 = EDGE_CURVE ( 'NONE', #199, #124, #1, .T. ) ;
#39 = CC_DESIGN_PERSON_AND_ORGANIZATION_ASSIGNMENT ( #200, #3, ( #236 ) ) ;
#40 = COORDINATED_UNIVERSAL_TIME_OFFSET ( 1, 0, .AHEAD. ) ;
#41 = APPROVAL_DATE_TIME ( #238, #114 ) ;
#42 = APPROVAL_STATUS ( 'not_yet_approved' ) ;
#43 = EDGE_LOOP ( 'NONE', ( #158, #155 ) ) ;
#44 = CARTESIAN_POINT ( 'NONE',  ( 1.250000000000000000, 1.530808498934191571E-16, 1.199999999999999956 ) ) ;
#45 = ORIENTED_EDGE ( 'NONE', *, *, #79, .T. ) ;
#46 = EDGE_LOOP ( 'NONE', ( #243, #140, #45, #119 ) ) ;
#47 = SHAPE_DEFINITION_REPRESENTATION ( #195, #98 ) ;
#48 = ORIENTED_EDGE ( 'NONE', *, *, #212, .F. ) ;
#49 = DATE_AND_TIME ( #228, #206 ) ;
#50 = DIRECTION ( 'NONE',  ( 1.000000000000000000, 0.000000000000000000, 0.000000000000000000 ) ) ;
#51 = CALENDAR_DATE ( 2023, 31, 1 ) ;
#52 = CYLINDRICAL_SURFACE ( 'NONE', #153, 1.250000000000000000 ) ;
#53 = CYLINDRICAL_SURFACE ( 'NONE', #133, 1.250000000000000000 ) ;
#54 = DESIGN_CONTEXT ( 'detailed design', #18, 'design' ) ;
#55 = DIRECTION ( 'NONE',  ( 1.000000000000000000, 0.000000000000000000, -0.000000000000000000 ) ) ;
#56 = DIRECTION ( 'NONE',  ( 0.000000000000000000, 0.000000000000000000, 1.000000000000000000 ) ) ;
#57 = LOCAL_TIME ( 15, 30, 33.00000000000000000, #181 ) ;
#58 = DIRECTION ( 'NONE',  ( 1.000000000000000000, 0.000000000000000000, 0.000000000000000000 ) ) ;
#59 = DATE_AND_TIME ( #76, #65 ) ;
#60 =( NAMED_UNIT ( * ) SI_UNIT ( $, .STERADIAN. ) SOLID_ANGLE_UNIT ( ) );
#61 = CC_DESIGN_APPROVAL ( #92, ( #187 ) ) ;
#62 = APPROVAL_STATUS ( 'not_yet_approved' ) ;
#63 = PERSON_AND_ORGANIZATION ( #235, #166 ) ;
#64 = ORIENTED_EDGE ( 'NONE', *, *, #103, .T. ) ;
#65 = LOCAL_TIME ( 15, 30, 33.00000000000000000, #4 ) ;
#66 = FACE_BOUND ( 'NONE', #43, .T. ) ;
#67 = DIRECTION ( 'NONE',  ( 0.000000000000000000, 0.000000000000000000, 1.000000000000000000 ) ) ;
#68 = DIRECTION ( 'NONE',  ( 1.000000000000000000, 0.000000000000000000, 0.000000000000000000 ) ) ;
#69 = ADVANCED_FACE ( 'NONE', ( #66, #90 ), #88, .T. ) ;
#70 = CYLINDRICAL_SURFACE ( 'NONE', #226, 0.5000000000000000000 ) ;
#71 = DIRECTION ( 'NONE',  ( 1.000000000000000000, 0.000000000000000000, 0.000000000000000000 ) ) ;
#72 = EDGE_CURVE ( 'NONE', #239, #163, #82, .T. ) ;
#73 = AXIS2_PLACEMENT_3D ( 'NONE', #93, #197, #216 ) ;
#74 = APPROVAL_ROLE ( '' ) ;
#75 = ADVANCED_FACE ( 'NONE', ( #207 ), #52, .T. ) ;
#76 = CALENDAR_DATE ( 2023, 31, 1 ) ;
#77 =( NAMED_UNIT ( * ) PLANE_ANGLE_UNIT ( ) SI_UNIT ( $, .RADIAN. ) );
#78 = EDGE_LOOP ( 'NONE', ( #162, #122, #138, #64 ) ) ;
#79 = EDGE_CURVE ( 'NONE', #199, #111, #35, .T. ) ;
#80 = APPLICATION_PROTOCOL_DEFINITION ( 'international standard', 'config_control_design', 1994, #18 ) ;
#81 = ORIENTED_EDGE ( 'NONE', *, *, #38, .T. ) ;
#82 = CIRCLE ( 'NONE', #23, 1.250000000000000000 ) ;
#83 = DATE_AND_TIME ( #185, #57 ) ;
#84 = ORIENTED_EDGE ( 'NONE', *, *, #217, .F. ) ;
#85 = DIRECTION ( 'NONE',  ( -0.000000000000000000, -0.000000000000000000, -1.000000000000000000 ) ) ;
#86 = CIRCLE ( 'NONE', #223, 0.5000000000000000000 ) ;
#87 = DIRECTION ( 'NONE',  ( -1.000000000000000000, 0.000000000000000000, 0.000000000000000000 ) ) ;
#88 = PLANE ( 'NONE',  #129 ) ;
#89 = DIRECTION ( 'NONE',  ( 0.000000000000000000, 0.000000000000000000, 1.000000000000000000 ) ) ;
#90 = FACE_OUTER_BOUND ( 'NONE', #25, .T. ) ;
#91 = LOCAL_TIME ( 15, 30, 33.00000000000000000, #208 ) ;
#92 = APPROVAL ( #42, 'NEURÈENÝ' ) ;
#93 = CARTESIAN_POINT ( 'NONE',  ( 0.000000000000000000, 0.000000000000000000, 0.000000000000000000 ) ) ;
#94 = APPLICATION_CONTEXT ( 'configuration controlled 3d designs of mechanical parts and assemblies' ) ;
#95 = DIRECTION ( 'NONE',  ( 0.000000000000000000, 0.000000000000000000, 1.000000000000000000 ) ) ;
#96 = PERSON_AND_ORGANIZATION_ROLE ( 'creator' ) ;
#97 = ORIENTED_EDGE ( 'NONE', *, *, #212, .T. ) ;
#98 = ADVANCED_BREP_SHAPE_REPRESENTATION ( '6c95', ( #245, #73 ), #159 ) ;
#99 = CARTESIAN_POINT ( 'NONE',  ( 0.000000000000000000, 0.000000000000000000, 100.0000000000000000 ) ) ;
#100 = MECHANICAL_CONTEXT ( 'NONE', #94, 'mechanical' ) ;
#101 = ORIENTED_EDGE ( 'NONE', *, *, #161, .T. ) ;
#102 = APPROVAL_PERSON_ORGANIZATION ( #15, #173, #164 ) ;
#103 = EDGE_CURVE ( 'NONE', #163, #239, #160, .T. ) ;
#104 = CARTESIAN_POINT ( 'NONE',  ( 0.000000000000000000, 0.000000000000000000, 1.199999999999999956 ) ) ;
#105 = DATE_AND_TIME ( #51, #91 ) ;
#106 = CARTESIAN_POINT ( 'NONE',  ( 0.5000000000000000000, 6.123233995736766036E-17, 100.0000000000000000 ) ) ;
#107 = DATE_TIME_ROLE ( 'classification_date' ) ;
#108 = CC_DESIGN_APPROVAL ( #173, ( #201 ) ) ;
#109 = CARTESIAN_POINT ( 'NONE',  ( -1.250000000000000000, 0.000000000000000000, 1.199999999999999956 ) ) ;
#110 = CARTESIAN_POINT ( 'NONE',  ( 0.000000000000000000, 0.000000000000000000, 100.0000000000000000 ) ) ;
#111 = VERTEX_POINT ( 'NONE', #37 ) ;
#112 = AXIS2_PLACEMENT_3D ( 'NONE', #104, #233, #68 ) ;
#113 = LOCAL_TIME ( 15, 30, 33.00000000000000000, #40 ) ;
#114 = APPROVAL ( #221, 'NEURÈENÝ' ) ;
#115 = PERSON_AND_ORGANIZATION ( #235, #166 ) ;
#116 = PERSON_AND_ORGANIZATION ( #235, #166 ) ;
#117 = CALENDAR_DATE ( 2023, 31, 1 ) ;
#118 = EDGE_CURVE ( 'NONE', #177, #141, #182, .T. ) ;
#119 = ORIENTED_EDGE ( 'NONE', *, *, #33, .T. ) ;
#120 = VECTOR ( 'NONE', #255, 1000.000000000000000 ) ;
#121 = APPROVAL_ROLE ( '' ) ;
#122 = ORIENTED_EDGE ( 'NONE', *, *, #125, .F. ) ;
#123 = PERSON_AND_ORGANIZATION ( #235, #166 ) ;
#124 = VERTEX_POINT ( 'NONE', #106 ) ;
#125 = EDGE_CURVE ( 'NONE', #141, #177, #192, .T. ) ;
#126 = FACE_OUTER_BOUND ( 'NONE', #78, .T. ) ;
#127 = DIRECTION ( 'NONE',  ( -1.000000000000000000, 0.000000000000000000, 0.000000000000000000 ) ) ;
#128 = CARTESIAN_POINT ( 'NONE',  ( 0.000000000000000000, 0.000000000000000000, 1.199999999999999956 ) ) ;
#129 = AXIS2_PLACEMENT_3D ( 'NONE', #168, #145, #55 ) ;
#130 = DIRECTION ( 'NONE',  ( 1.000000000000000000, 0.000000000000000000, 0.000000000000000000 ) ) ;
#131 = DIRECTION ( 'NONE',  ( -0.000000000000000000, -0.000000000000000000, -1.000000000000000000 ) ) ;
#132 = LINE ( 'NONE', #175, #151 ) ;
#133 = AXIS2_PLACEMENT_3D ( 'NONE', #172, #167, #127 ) ;
#134 = CC_DESIGN_PERSON_AND_ORGANIZATION_ASSIGNMENT ( #63, #244, ( #187 ) ) ;
#135 = CARTESIAN_POINT ( 'NONE',  ( 1.250000000000000000, 1.530808498934191571E-16, 0.000000000000000000 ) ) ;
#136 = DIRECTION ( 'NONE',  ( -0.000000000000000000, -0.000000000000000000, -1.000000000000000000 ) ) ;
#137 = DATE_TIME_ROLE ( 'creation_date' ) ;
#138 = ORIENTED_EDGE ( 'NONE', *, *, #217, .T. ) ;
#139 = CC_DESIGN_DATE_AND_TIME_ASSIGNMENT ( #59, #137, ( #246 ) ) ;
#140 = ORIENTED_EDGE ( 'NONE', *, *, #38, .F. ) ;
#141 = VERTEX_POINT ( 'NONE', #109 ) ;
#142 = CIRCLE ( 'NONE', #176, 0.5000000000000000000 ) ;
#143 = CARTESIAN_POINT ( 'NONE',  ( 0.000000000000000000, 0.000000000000000000, 1.199999999999999956 ) ) ;
#144 = DIRECTION ( 'NONE',  ( 1.000000000000000000, 0.000000000000000000, -0.000000000000000000 ) ) ;
#145 = DIRECTION ( 'NONE',  ( 0.000000000000000000, 0.000000000000000000, 1.000000000000000000 ) ) ;
#146 = AXIS2_PLACEMENT_3D ( 'NONE', #240, #56, #58 ) ;
#147 = CARTESIAN_POINT ( 'NONE',  ( 0.000000000000000000, 0.000000000000000000, 100.0000000000000000 ) ) ;
#148 = DIRECTION ( 'NONE',  ( 0.000000000000000000, 0.000000000000000000, 1.000000000000000000 ) ) ;
#149 = EDGE_CURVE ( 'NONE', #183, #111, #142, .T. ) ;
#150 = CARTESIAN_POINT ( 'NONE',  ( -0.5000000000000000000, 0.000000000000000000, 100.0000000000000000 ) ) ;
#151 = VECTOR ( 'NONE', #198, 1000.000000000000000 ) ;
#152 = ADVANCED_FACE ( 'NONE', ( #211 ), #36, .T. ) ;
#153 = AXIS2_PLACEMENT_3D ( 'NONE', #230, #131, #210 ) ;
#154 = DIRECTION ( 'NONE',  ( -1.000000000000000000, 0.000000000000000000, 0.000000000000000000 ) ) ;
#155 = ORIENTED_EDGE ( 'NONE', *, *, #149, .F. ) ;
#156 = ORIENTED_EDGE ( 'NONE', *, *, #222, .T. ) ;
#157 = CARTESIAN_POINT ( 'NONE',  ( 1.250000000000000000, 1.530808498934191571E-16, 1.199999999999999956 ) ) ;
#158 = ORIENTED_EDGE ( 'NONE', *, *, #33, .F. ) ;
#159 =( GEOMETRIC_REPRESENTATION_CONTEXT ( 3 ) GLOBAL_UNCERTAINTY_ASSIGNED_CONTEXT ( ( #218 ) ) GLOBAL_UNIT_ASSIGNED_CONTEXT ( ( #219, #77, #60 ) ) REPRESENTATION_CONTEXT ( 'NONE', 'WORKASPACE' ) );
#160 = CIRCLE ( 'NONE', #29, 1.250000000000000000 ) ;
#161 = EDGE_CURVE ( 'NONE', #124, #183, #189, .T. ) ;
#162 = ORIENTED_EDGE ( 'NONE', *, *, #222, .F. ) ;
#163 = VERTEX_POINT ( 'NONE', #169 ) ;
#164 = APPROVAL_ROLE ( '' ) ;
#165 = EDGE_LOOP ( 'NONE', ( #179, #241 ) ) ;
#166 = ORGANIZATION ( 'NEURÈENÝ', 'NEURÈENÝ', '' ) ;
#167 = DIRECTION ( 'NONE',  ( -0.000000000000000000, -0.000000000000000000, -1.000000000000000000 ) ) ;
#168 = CARTESIAN_POINT ( 'NONE',  ( 0.000000000000000000, 0.000000000000000000, 1.199999999999999956 ) ) ;
#169 = CARTESIAN_POINT ( 'NONE',  ( -1.250000000000000000, 0.000000000000000000, 0.000000000000000000 ) ) ;
#170 = ADVANCED_FACE ( 'NONE', ( #248 ), #70, .T. ) ;
#171 = VECTOR ( 'NONE', #85, 1000.000000000000000 ) ;
#172 = CARTESIAN_POINT ( 'NONE',  ( 0.000000000000000000, 0.000000000000000000, 1.199999999999999956 ) ) ;
#173 = APPROVAL ( #62, 'NEURÈENÝ' ) ;
#174 = APPROVAL_PERSON_ORGANIZATION ( #115, #114, #74 ) ;
#175 = CARTESIAN_POINT ( 'NONE',  ( -1.250000000000000000, 0.000000000000000000, 1.199999999999999956 ) ) ;
#176 = AXIS2_PLACEMENT_3D ( 'NONE', #16, #89, #184 ) ;
#177 = VERTEX_POINT ( 'NONE', #157 ) ;
#178 = VECTOR ( 'NONE', #24, 1000.000000000000000 ) ;
#179 = ORIENTED_EDGE ( 'NONE', *, *, #103, .F. ) ;
#180 = LINE ( 'NONE', #44, #178 ) ;
#181 = COORDINATED_UNIVERSAL_TIME_OFFSET ( 1, 0, .AHEAD. ) ;
#182 = CIRCLE ( 'NONE', #254, 1.250000000000000000 ) ;
#183 = VERTEX_POINT ( 'NONE', #26 ) ;
#184 = DIRECTION ( 'NONE',  ( 1.000000000000000000, 0.000000000000000000, 0.000000000000000000 ) ) ;
#185 = CALENDAR_DATE ( 2023, 31, 1 ) ;
#186 = DIRECTION ( 'NONE',  ( 0.000000000000000000, 0.000000000000000000, 1.000000000000000000 ) ) ;
#187 = PRODUCT_DEFINITION_FORMATION_WITH_SPECIFIED_SOURCE ( 'LIBOVOLNÝ', '', #236, .NOT_KNOWN. ) ;
#188 = CARTESIAN_POINT ( 'NONE',  ( 0.000000000000000000, 0.000000000000000000, 0.000000000000000000 ) ) ;
#189 = LINE ( 'NONE', #14, #171 ) ;
#190 = CC_DESIGN_PERSON_AND_ORGANIZATION_ASSIGNMENT ( #123, #31, ( #201 ) ) ;
#191 = CARTESIAN_POINT ( 'NONE',  ( -0.5000000000000000000, 0.000000000000000000, 100.0000000000000000 ) ) ;
#192 = CIRCLE ( 'NONE', #112, 1.250000000000000000 ) ;
#193 = CC_DESIGN_APPROVAL ( #114, ( #246 ) ) ;
#194 = APPLICATION_PROTOCOL_DEFINITION ( 'international standard', 'config_control_design', 1994, #94 ) ;
#195 = PRODUCT_DEFINITION_SHAPE ( 'NONE', 'NONE',  #246 ) ;
#196 = AXIS2_PLACEMENT_3D ( 'NONE', #110, #253, #87 ) ;
#197 = DIRECTION ( 'NONE',  ( 0.000000000000000000, 0.000000000000000000, 1.000000000000000000 ) ) ;
#198 = DIRECTION ( 'NONE',  ( -0.000000000000000000, -0.000000000000000000, -1.000000000000000000 ) ) ;
#199 = VERTEX_POINT ( 'NONE', #150 ) ;
#200 = PERSON_AND_ORGANIZATION ( #235, #166 ) ;
#201 = SECURITY_CLASSIFICATION ( '', '', #205 ) ;
#202 = COORDINATED_UNIVERSAL_TIME_OFFSET ( 1, 0, .AHEAD. ) ;
#203 = PRODUCT_RELATED_PRODUCT_CATEGORY ( 'detail', '', ( #236 ) ) ;
#204 = PERSON_AND_ORGANIZATION ( #235, #166 ) ;
#205 = SECURITY_CLASSIFICATION_LEVEL ( 'unclassified' ) ;
#206 = LOCAL_TIME ( 15, 30, 33.00000000000000000, #202 ) ;
#207 = FACE_OUTER_BOUND ( 'NONE', #225, .T. ) ;
#208 = COORDINATED_UNIVERSAL_TIME_OFFSET ( 1, 0, .AHEAD. ) ;
#209 = DIRECTION ( 'NONE',  ( 0.000000000000000000, 0.000000000000000000, 1.000000000000000000 ) ) ;
#210 = DIRECTION ( 'NONE',  ( -1.000000000000000000, 0.000000000000000000, 0.000000000000000000 ) ) ;
#211 = FACE_OUTER_BOUND ( 'NONE', #10, .T. ) ;
#212 = EDGE_CURVE ( 'NONE', #124, #199, #30, .T. ) ;
#213 = DIRECTION ( 'NONE',  ( 0.000000000000000000, 0.000000000000000000, 1.000000000000000000 ) ) ;
#214 = DIRECTION ( 'NONE',  ( 1.000000000000000000, 0.000000000000000000, -0.000000000000000000 ) ) ;
#215 = CC_DESIGN_SECURITY_CLASSIFICATION ( #201, ( #187 ) ) ;
#216 = DIRECTION ( 'NONE',  ( 1.000000000000000000, 0.000000000000000000, 0.000000000000000000 ) ) ;
#217 = EDGE_CURVE ( 'NONE', #141, #163, #132, .T. ) ;
#218 = UNCERTAINTY_MEASURE_WITH_UNIT (LENGTH_MEASURE( 1.000000000000000082E-05 ), #219, 'distance_accuracy_value', 'NONE');
#219 =( LENGTH_UNIT ( ) NAMED_UNIT ( * ) SI_UNIT ( .MILLI., .METRE. ) );
#220 = PERSON_AND_ORGANIZATION ( #235, #166 ) ;
#221 = APPROVAL_STATUS ( 'not_yet_approved' ) ;
#222 = EDGE_CURVE ( 'NONE', #177, #239, #180, .T. ) ;
#223 = AXIS2_PLACEMENT_3D ( 'NONE', #128, #209, #130 ) ;
#224 = APPROVAL_PERSON_ORGANIZATION ( #220, #92, #121 ) ;
#225 = EDGE_LOOP ( 'NONE', ( #27, #156, #227, #84 ) ) ;
#226 = AXIS2_PLACEMENT_3D ( 'NONE', #34, #136, #154 ) ;
#227 = ORIENTED_EDGE ( 'NONE', *, *, #72, .T. ) ;
#228 = CALENDAR_DATE ( 2023, 31, 1 ) ;
#229 = DIRECTION ( 'NONE',  ( 1.000000000000000000, 0.000000000000000000, 0.000000000000000000 ) ) ;
#230 = CARTESIAN_POINT ( 'NONE',  ( 0.000000000000000000, 0.000000000000000000, 1.199999999999999956 ) ) ;
#231 = CLOSED_SHELL ( 'NONE', ( #152, #75, #17, #69, #2, #170, #237 ) ) ;
#232 = CARTESIAN_POINT ( 'NONE',  ( 0.000000000000000000, 0.000000000000000000, 0.000000000000000000 ) ) ;
#233 = DIRECTION ( 'NONE',  ( 0.000000000000000000, 0.000000000000000000, 1.000000000000000000 ) ) ;
#234 = FACE_OUTER_BOUND ( 'NONE', #7, .T. ) ;
#235 = PERSON ( 'NEURÈENÝ', 'NEURÈENÝ', 'NEURÈENÝ', ('NEURÈENÝ'), ('NEURÈENÝ'), ('NEURÈENÝ') ) ;
#236 = PRODUCT ( '6c95', '6c95', '', ( #100 ) ) ;
#237 = ADVANCED_FACE ( 'NONE', ( #234 ), #6, .T. ) ;
#238 = DATE_AND_TIME ( #117, #113 ) ;
#239 = VERTEX_POINT ( 'NONE', #135 ) ;
#240 = CARTESIAN_POINT ( 'NONE',  ( 0.000000000000000000, 0.000000000000000000, 100.0000000000000000 ) ) ;
#241 = ORIENTED_EDGE ( 'NONE', *, *, #72, .F. ) ;
#242 = AXIS2_PLACEMENT_3D ( 'NONE', #147, #186, #50 ) ;
#243 = ORIENTED_EDGE ( 'NONE', *, *, #161, .F. ) ;
#244 = PERSON_AND_ORGANIZATION_ROLE ( 'design_supplier' ) ;
#245 = MANIFOLD_SOLID_BREP ( 'Pøidat vysunutím3', #231 ) ;
#246 = PRODUCT_DEFINITION ( 'NEZNÁMÝ', '', #187, #54 ) ;
#247 = ORIENTED_EDGE ( 'NONE', *, *, #125, .T. ) ;
#248 = FACE_OUTER_BOUND ( 'NONE', #46, .T. ) ;
#249 = APPROVAL_DATE_TIME ( #49, #92 ) ;
#250 = PLANE ( 'NONE',  #8 ) ;
#251 = CC_DESIGN_DATE_AND_TIME_ASSIGNMENT ( #105, #107, ( #201 ) ) ;
#252 = DIRECTION ( 'NONE',  ( 0.000000000000000000, 0.000000000000000000, 1.000000000000000000 ) ) ;
#253 = DIRECTION ( 'NONE',  ( -0.000000000000000000, -0.000000000000000000, -1.000000000000000000 ) ) ;
#254 = AXIS2_PLACEMENT_3D ( 'NONE', #143, #148, #32 ) ;
#255 = DIRECTION ( 'NONE',  ( -0.000000000000000000, -0.000000000000000000, -1.000000000000000000 ) ) ;
ENDSEC;
END-ISO-10303-21;
