ISO-10303-21;
HEADER;
FILE_DESCRIPTION (( 'STEP AP203' ),
    '1' );
FILE_NAME ('14fe.STEP',
    '2023-02-13T13:36:25',
    ( '' ),
    ( '' ),
    'SwSTEP 2.0',
    'SolidWorks 2019',
    '' );
FILE_SCHEMA (( 'CONFIG_CONTROL_DESIGN' ));
ENDSEC;

DATA;
#1 = EDGE_LOOP ( 'NONE', ( #153, #203, #179, #59 ) ) ;
#2 = VERTEX_POINT ( 'NONE', #188 ) ;
#3 = EDGE_CURVE ( 'NONE', #220, #224, #213, .T. ) ;
#4 = PRODUCT_DEFINITION_FORMATION_WITH_SPECIFIED_SOURCE ( 'LIBOVOLNÝ', '', #83, .NOT_KNOWN. ) ;
#5 = CARTESIAN_POINT ( 'NONE',  ( -6.000000000000000888, 0.000000000000000000, 5.000000000000000000 ) ) ;
#6 = DIRECTION ( 'NONE',  ( 0.000000000000000000, 0.000000000000000000, 1.000000000000000000 ) ) ;
#7 = CALENDAR_DATE ( 2023, 13, 2 ) ;
#8 = DIRECTION ( 'NONE',  ( 1.000000000000000000, 0.000000000000000000, 0.000000000000000000 ) ) ;
#9 = ADVANCED_FACE ( 'NONE', ( #72 ), #49, .T. ) ;
#10 = PERSON_AND_ORGANIZATION ( #70, #186 ) ;
#11 = DIRECTION ( 'NONE',  ( 1.000000000000000000, 0.000000000000000000, 0.000000000000000000 ) ) ;
#12 = CC_DESIGN_APPROVAL ( #21, ( #187 ) ) ;
#13 = DATE_TIME_ROLE ( 'creation_date' ) ;
#14 = CARTESIAN_POINT ( 'NONE',  ( 0.000000000000000000, 0.000000000000000000, 0.000000000000000000 ) ) ;
#15 = CALENDAR_DATE ( 2023, 13, 2 ) ;
#16 = ADVANCED_FACE ( 'NONE', ( #93 ), #33, .T. ) ;
#17 = DIRECTION ( 'NONE',  ( -0.000000000000000000, -0.000000000000000000, -1.000000000000000000 ) ) ;
#18 = CIRCLE ( 'NONE', #74, 3.500000000000000000 ) ;
#19 = APPROVAL_PERSON_ORGANIZATION ( #141, #53, #119 ) ;
#20 = ORIENTED_EDGE ( 'NONE', *, *, #3, .T. ) ;
#21 = APPROVAL ( #99, 'NEURÈENÝ' ) ;
#22 =( GEOMETRIC_REPRESENTATION_CONTEXT ( 3 ) GLOBAL_UNCERTAINTY_ASSIGNED_CONTEXT ( ( #87 ) ) GLOBAL_UNIT_ASSIGNED_CONTEXT ( ( #157, #95, #113 ) ) REPRESENTATION_CONTEXT ( 'NONE', 'WORKASPACE' ) );
#23 = CARTESIAN_POINT ( 'NONE',  ( 0.000000000000000000, 0.000000000000000000, 160.0000000000000000 ) ) ;
#24 = CLOSED_SHELL ( 'NONE', ( #64, #16, #131, #38, #221, #92, #9 ) ) ;
#25 = CYLINDRICAL_SURFACE ( 'NONE', #208, 3.500000000000000000 ) ;
#26 = CC_DESIGN_DATE_AND_TIME_ASSIGNMENT ( #41, #13, ( #187 ) ) ;
#27 = CC_DESIGN_PERSON_AND_ORGANIZATION_ASSIGNMENT ( #76, #226, ( #83 ) ) ;
#28 = DATE_AND_TIME ( #209, #62 ) ;
#29 = CARTESIAN_POINT ( 'NONE',  ( 3.500000000000000000, 4.286263797015736595E-16, 160.0000000000000000 ) ) ;
#30 = CARTESIAN_POINT ( 'NONE',  ( -3.500000000000000000, 0.000000000000000000, 5.000000000000000000 ) ) ;
#31 = APPROVAL_ROLE ( '' ) ;
#32 = DIRECTION ( 'NONE',  ( 1.000000000000000000, 0.000000000000000000, -0.000000000000000000 ) ) ;
#33 = CYLINDRICAL_SURFACE ( 'NONE', #104, 6.000000000000000888 ) ;
#34 = CALENDAR_DATE ( 2023, 13, 2 ) ;
#35 = CARTESIAN_POINT ( 'NONE',  ( 3.500000000000000000, 4.286263797015736595E-16, 160.0000000000000000 ) ) ;
#36 = VECTOR ( 'NONE', #71, 1000.000000000000000 ) ;
#37 = PRODUCT_DEFINITION_SHAPE ( 'NONE', 'NONE',  #187 ) ;
#38 = ADVANCED_FACE ( 'NONE', ( #48, #244 ), #169, .T. ) ;
#39 = COORDINATED_UNIVERSAL_TIME_OFFSET ( 1, 0, .AHEAD. ) ;
#40 = FACE_OUTER_BOUND ( 'NONE', #60, .T. ) ;
#41 = DATE_AND_TIME ( #94, #154 ) ;
#42 = CARTESIAN_POINT ( 'NONE',  ( 3.500000000000000000, 4.286263797015736595E-16, 5.000000000000000000 ) ) ;
#43 = CC_DESIGN_SECURITY_CLASSIFICATION ( #254, ( #4 ) ) ;
#44 = ORIENTED_EDGE ( 'NONE', *, *, #3, .F. ) ;
#45 = DIRECTION ( 'NONE',  ( -1.000000000000000000, 0.000000000000000000, 0.000000000000000000 ) ) ;
#46 = AXIS2_PLACEMENT_3D ( 'NONE', #216, #196, #8 ) ;
#47 = ORIENTED_EDGE ( 'NONE', *, *, #86, .T. ) ;
#48 = FACE_BOUND ( 'NONE', #166, .T. ) ;
#49 = PLANE ( 'NONE',  #108 ) ;
#50 = CIRCLE ( 'NONE', #241, 6.000000000000000888 ) ;
#51 = PLANE ( 'NONE',  #128 ) ;
#52 = DIRECTION ( 'NONE',  ( -0.000000000000000000, -0.000000000000000000, -1.000000000000000000 ) ) ;
#53 = APPROVAL ( #142, 'NEURÈENÝ' ) ;
#54 = COORDINATED_UNIVERSAL_TIME_OFFSET ( 1, 0, .AHEAD. ) ;
#55 = CARTESIAN_POINT ( 'NONE',  ( -3.500000000000000000, 0.000000000000000000, 160.0000000000000000 ) ) ;
#56 = EDGE_CURVE ( 'NONE', #2, #149, #206, .T. ) ;
#57 = DIRECTION ( 'NONE',  ( 0.000000000000000000, 0.000000000000000000, 1.000000000000000000 ) ) ;
#58 = FACE_OUTER_BOUND ( 'NONE', #238, .T. ) ;
#59 = ORIENTED_EDGE ( 'NONE', *, *, #218, .T. ) ;
#60 = EDGE_LOOP ( 'NONE', ( #68, #90 ) ) ;
#61 = AXIS2_PLACEMENT_3D ( 'NONE', #211, #6, #11 ) ;
#62 = LOCAL_TIME ( 14, 36, 25.00000000000000000, #192 ) ;
#63 = DIRECTION ( 'NONE',  ( 1.000000000000000000, 0.000000000000000000, 0.000000000000000000 ) ) ;
#64 = ADVANCED_FACE ( 'NONE', ( #227 ), #25, .T. ) ;
#65 = MANIFOLD_SOLID_BREP ( 'Pøidat vysunutím3', #24 ) ;
#66 = AXIS2_PLACEMENT_3D ( 'NONE', #85, #164, #63 ) ;
#67 = ORIENTED_EDGE ( 'NONE', *, *, #110, .F. ) ;
#68 = ORIENTED_EDGE ( 'NONE', *, *, #86, .F. ) ;
#69 = CIRCLE ( 'NONE', #46, 3.500000000000000000 ) ;
#70 = PERSON ( 'NEURÈENÝ', 'NEURÈENÝ', 'NEURÈENÝ', ('NEURÈENÝ'), ('NEURÈENÝ'), ('NEURÈENÝ') ) ;
#71 = DIRECTION ( 'NONE',  ( -0.000000000000000000, -0.000000000000000000, -1.000000000000000000 ) ) ;
#72 = FACE_OUTER_BOUND ( 'NONE', #155, .T. ) ;
#73 = APPROVAL_STATUS ( 'not_yet_approved' ) ;
#74 = AXIS2_PLACEMENT_3D ( 'NONE', #210, #246, #143 ) ;
#75 = EDGE_LOOP ( 'NONE', ( #235, #126 ) ) ;
#76 = PERSON_AND_ORGANIZATION ( #70, #186 ) ;
#77 = LINE ( 'NONE', #35, #182 ) ;
#78 = PERSON_AND_ORGANIZATION_ROLE ( 'design_supplier' ) ;
#79 = PERSON_AND_ORGANIZATION ( #70, #186 ) ;
#80 = DIRECTION ( 'NONE',  ( 0.000000000000000000, 0.000000000000000000, 1.000000000000000000 ) ) ;
#81 = VECTOR ( 'NONE', #217, 1000.000000000000000 ) ;
#82 = ORIENTED_EDGE ( 'NONE', *, *, #242, .F. ) ;
#83 = PRODUCT ( '14fe', '14fe', '', ( #233 ) ) ;
#84 = AXIS2_PLACEMENT_3D ( 'NONE', #161, #116, #190 ) ;
#85 = CARTESIAN_POINT ( 'NONE',  ( 0.000000000000000000, 0.000000000000000000, 160.0000000000000000 ) ) ;
#86 = EDGE_CURVE ( 'NONE', #149, #224, #118, .T. ) ;
#87 = UNCERTAINTY_MEASURE_WITH_UNIT (LENGTH_MEASURE( 1.000000000000000082E-05 ), #157, 'distance_accuracy_value', 'NONE');
#88 = VERTEX_POINT ( 'NONE', #167 ) ;
#89 = APPROVAL_PERSON_ORGANIZATION ( #10, #21, #174 ) ;
#90 = ORIENTED_EDGE ( 'NONE', *, *, #183, .F. ) ;
#91 = VERTEX_POINT ( 'NONE', #30 ) ;
#92 = ADVANCED_FACE ( 'NONE', ( #114 ), #197, .T. ) ;
#93 = FACE_OUTER_BOUND ( 'NONE', #225, .T. ) ;
#94 = CALENDAR_DATE ( 2023, 13, 2 ) ;
#95 =( NAMED_UNIT ( * ) PLANE_ANGLE_UNIT ( ) SI_UNIT ( $, .RADIAN. ) );
#96 = ORIENTED_EDGE ( 'NONE', *, *, #56, .T. ) ;
#97 = AXIS2_PLACEMENT_3D ( 'NONE', #132, #137, #207 ) ;
#98 = SHAPE_DEFINITION_REPRESENTATION ( #37, #176 ) ;
#99 = APPROVAL_STATUS ( 'not_yet_approved' ) ;
#100 = APPROVAL_DATE_TIME ( #120, #21 ) ;
#101 = DIRECTION ( 'NONE',  ( 0.000000000000000000, 0.000000000000000000, 1.000000000000000000 ) ) ;
#102 = CARTESIAN_POINT ( 'NONE',  ( 6.000000000000000888, 7.347880794884120722E-16, 5.000000000000000000 ) ) ;
#103 = AXIS2_PLACEMENT_3D ( 'NONE', #140, #17, #121 ) ;
#104 = AXIS2_PLACEMENT_3D ( 'NONE', #130, #151, #185 ) ;
#105 = APPLICATION_CONTEXT ( 'configuration controlled 3d designs of mechanical parts and assemblies' ) ;
#106 = CC_DESIGN_PERSON_AND_ORGANIZATION_ASSIGNMENT ( #195, #228, ( #4 ) ) ;
#107 = EDGE_CURVE ( 'NONE', #220, #2, #231, .T. ) ;
#108 = AXIS2_PLACEMENT_3D ( 'NONE', #23, #194, #133 ) ;
#109 = DIRECTION ( 'NONE',  ( -0.000000000000000000, -0.000000000000000000, -1.000000000000000000 ) ) ;
#110 = EDGE_CURVE ( 'NONE', #88, #91, #234, .T. ) ;
#111 = ORIENTED_EDGE ( 'NONE', *, *, #165, .F. ) ;
#112 = CARTESIAN_POINT ( 'NONE',  ( 6.000000000000000888, 7.347880794884120722E-16, 5.000000000000000000 ) ) ;
#113 =( NAMED_UNIT ( * ) SI_UNIT ( $, .STERADIAN. ) SOLID_ANGLE_UNIT ( ) );
#114 = FACE_OUTER_BOUND ( 'NONE', #1, .T. ) ;
#115 = PERSON_AND_ORGANIZATION_ROLE ( 'classification_officer' ) ;
#116 = DIRECTION ( 'NONE',  ( 0.000000000000000000, 0.000000000000000000, 1.000000000000000000 ) ) ;
#117 = CARTESIAN_POINT ( 'NONE',  ( 0.000000000000000000, 0.000000000000000000, 160.0000000000000000 ) ) ;
#118 = CIRCLE ( 'NONE', #61, 6.000000000000000888 ) ;
#119 = APPROVAL_ROLE ( '' ) ;
#120 = DATE_AND_TIME ( #34, #172 ) ;
#121 = DIRECTION ( 'NONE',  ( -1.000000000000000000, 0.000000000000000000, 0.000000000000000000 ) ) ;
#122 = DATE_AND_TIME ( #7, #202 ) ;
#123 = DIRECTION ( 'NONE',  ( -0.000000000000000000, -0.000000000000000000, -1.000000000000000000 ) ) ;
#124 = APPLICATION_CONTEXT ( 'configuration controlled 3d designs of mechanical parts and assemblies' ) ;
#125 = CC_DESIGN_PERSON_AND_ORGANIZATION_ASSIGNMENT ( #79, #229, ( #187 ) ) ;
#126 = ORIENTED_EDGE ( 'NONE', *, *, #107, .T. ) ;
#127 = DIRECTION ( 'NONE',  ( 0.000000000000000000, 0.000000000000000000, 1.000000000000000000 ) ) ;
#128 = AXIS2_PLACEMENT_3D ( 'NONE', #230, #178, #32 ) ;
#129 = ORIENTED_EDGE ( 'NONE', *, *, #183, .T. ) ;
#130 = CARTESIAN_POINT ( 'NONE',  ( 0.000000000000000000, 0.000000000000000000, 5.000000000000000000 ) ) ;
#131 = ADVANCED_FACE ( 'NONE', ( #58 ), #147, .T. ) ;
#132 = CARTESIAN_POINT ( 'NONE',  ( 0.000000000000000000, 0.000000000000000000, 5.000000000000000000 ) ) ;
#133 = DIRECTION ( 'NONE',  ( 1.000000000000000000, 0.000000000000000000, -0.000000000000000000 ) ) ;
#134 = AXIS2_PLACEMENT_3D ( 'NONE', #222, #127, #249 ) ;
#135 = COORDINATED_UNIVERSAL_TIME_OFFSET ( 1, 0, .AHEAD. ) ;
#136 = CARTESIAN_POINT ( 'NONE',  ( 6.000000000000000888, 7.347880794884120722E-16, 0.000000000000000000 ) ) ;
#137 = DIRECTION ( 'NONE',  ( 0.000000000000000000, 0.000000000000000000, 1.000000000000000000 ) ) ;
#138 = CC_DESIGN_PERSON_AND_ORGANIZATION_ASSIGNMENT ( #189, #115, ( #254 ) ) ;
#139 = APPROVAL_DATE_TIME ( #122, #180 ) ;
#140 = CARTESIAN_POINT ( 'NONE',  ( 0.000000000000000000, 0.000000000000000000, 160.0000000000000000 ) ) ;
#141 = PERSON_AND_ORGANIZATION ( #70, #186 ) ;
#142 = APPROVAL_STATUS ( 'not_yet_approved' ) ;
#143 = DIRECTION ( 'NONE',  ( 1.000000000000000000, 0.000000000000000000, 0.000000000000000000 ) ) ;
#144 = CC_DESIGN_DATE_AND_TIME_ASSIGNMENT ( #177, #160, ( #254 ) ) ;
#145 = VERTEX_POINT ( 'NONE', #42 ) ;
#146 = ORIENTED_EDGE ( 'NONE', *, *, #201, .T. ) ;
#147 = CYLINDRICAL_SURFACE ( 'NONE', #236, 6.000000000000000888 ) ;
#148 = DESIGN_CONTEXT ( 'detailed design', #124, 'design' ) ;
#149 = VERTEX_POINT ( 'NONE', #181 ) ;
#150 = ORIENTED_EDGE ( 'NONE', *, *, #168, .T. ) ;
#151 = DIRECTION ( 'NONE',  ( -0.000000000000000000, -0.000000000000000000, -1.000000000000000000 ) ) ;
#152 = VECTOR ( 'NONE', #109, 1000.000000000000000 ) ;
#153 = ORIENTED_EDGE ( 'NONE', *, *, #168, .F. ) ;
#154 = LOCAL_TIME ( 14, 36, 25.00000000000000000, #135 ) ;
#155 = EDGE_LOOP ( 'NONE', ( #199, #146 ) ) ;
#156 = PERSON_AND_ORGANIZATION ( #70, #186 ) ;
#157 =( LENGTH_UNIT ( ) NAMED_UNIT ( * ) SI_UNIT ( .MILLI., .METRE. ) );
#158 = DIRECTION ( 'NONE',  ( 1.000000000000000000, 0.000000000000000000, 0.000000000000000000 ) ) ;
#159 = EDGE_CURVE ( 'NONE', #88, #247, #205, .T. ) ;
#160 = DATE_TIME_ROLE ( 'classification_date' ) ;
#161 = CARTESIAN_POINT ( 'NONE',  ( 0.000000000000000000, 0.000000000000000000, 0.000000000000000000 ) ) ;
#162 = CARTESIAN_POINT ( 'NONE',  ( 0.000000000000000000, 0.000000000000000000, 5.000000000000000000 ) ) ;
#163 = AXIS2_PLACEMENT_3D ( 'NONE', #253, #57, #237 ) ;
#164 = DIRECTION ( 'NONE',  ( 0.000000000000000000, 0.000000000000000000, 1.000000000000000000 ) ) ;
#165 = EDGE_CURVE ( 'NONE', #2, #220, #239, .T. ) ;
#166 = EDGE_LOOP ( 'NONE', ( #200, #82 ) ) ;
#167 = CARTESIAN_POINT ( 'NONE',  ( -3.500000000000000000, 0.000000000000000000, 160.0000000000000000 ) ) ;
#168 = EDGE_CURVE ( 'NONE', #247, #145, #77, .T. ) ;
#169 = PLANE ( 'NONE',  #97 ) ;
#170 = APPROVAL_DATE_TIME ( #28, #53 ) ;
#171 = DIRECTION ( 'NONE',  ( -1.000000000000000000, 0.000000000000000000, 0.000000000000000000 ) ) ;
#172 = LOCAL_TIME ( 14, 36, 25.00000000000000000, #54 ) ;
#173 = CC_DESIGN_APPROVAL ( #180, ( #4 ) ) ;
#174 = APPROVAL_ROLE ( '' ) ;
#175 = DIRECTION ( 'NONE',  ( 1.000000000000000000, 0.000000000000000000, 0.000000000000000000 ) ) ;
#176 = ADVANCED_BREP_SHAPE_REPRESENTATION ( '14fe', ( #65, #84 ), #22 ) ;
#177 = DATE_AND_TIME ( #15, #255 ) ;
#178 = DIRECTION ( 'NONE',  ( 0.000000000000000000, 0.000000000000000000, 1.000000000000000000 ) ) ;
#179 = ORIENTED_EDGE ( 'NONE', *, *, #110, .T. ) ;
#180 = APPROVAL ( #73, 'NEURÈENÝ' ) ;
#181 = CARTESIAN_POINT ( 'NONE',  ( -6.000000000000000888, 0.000000000000000000, 0.000000000000000000 ) ) ;
#182 = VECTOR ( 'NONE', #123, 1000.000000000000000 ) ;
#183 = EDGE_CURVE ( 'NONE', #224, #149, #50, .T. ) ;
#184 = ORIENTED_EDGE ( 'NONE', *, *, #201, .F. ) ;
#185 = DIRECTION ( 'NONE',  ( -1.000000000000000000, 0.000000000000000000, 0.000000000000000000 ) ) ;
#186 = ORGANIZATION ( 'NEURÈENÝ', 'NEURÈENÝ', '' ) ;
#187 = PRODUCT_DEFINITION ( 'NEZNÁMÝ', '', #4, #148 ) ;
#188 = CARTESIAN_POINT ( 'NONE',  ( -6.000000000000000888, 0.000000000000000000, 5.000000000000000000 ) ) ;
#189 = PERSON_AND_ORGANIZATION ( #70, #186 ) ;
#190 = DIRECTION ( 'NONE',  ( 1.000000000000000000, 0.000000000000000000, 0.000000000000000000 ) ) ;
#191 = EDGE_LOOP ( 'NONE', ( #184, #150, #245, #67 ) ) ;
#192 = COORDINATED_UNIVERSAL_TIME_OFFSET ( 1, 0, .AHEAD. ) ;
#193 = APPLICATION_PROTOCOL_DEFINITION ( 'international standard', 'config_control_design', 1994, #124 ) ;
#194 = DIRECTION ( 'NONE',  ( 0.000000000000000000, 0.000000000000000000, 1.000000000000000000 ) ) ;
#195 = PERSON_AND_ORGANIZATION ( #70, #186 ) ;
#196 = DIRECTION ( 'NONE',  ( 0.000000000000000000, 0.000000000000000000, 1.000000000000000000 ) ) ;
#197 = CYLINDRICAL_SURFACE ( 'NONE', #103, 3.500000000000000000 ) ;
#198 = AXIS2_PLACEMENT_3D ( 'NONE', #251, #80, #158 ) ;
#199 = ORIENTED_EDGE ( 'NONE', *, *, #159, .T. ) ;
#200 = ORIENTED_EDGE ( 'NONE', *, *, #218, .F. ) ;
#201 = EDGE_CURVE ( 'NONE', #247, #88, #219, .T. ) ;
#202 = LOCAL_TIME ( 14, 36, 25.00000000000000000, #39 ) ;
#203 = ORIENTED_EDGE ( 'NONE', *, *, #159, .F. ) ;
#204 = CC_DESIGN_PERSON_AND_ORGANIZATION_ASSIGNMENT ( #212, #78, ( #4 ) ) ;
#205 = CIRCLE ( 'NONE', #66, 3.500000000000000000 ) ;
#206 = LINE ( 'NONE', #5, #36 ) ;
#207 = DIRECTION ( 'NONE',  ( 1.000000000000000000, 0.000000000000000000, -0.000000000000000000 ) ) ;
#208 = AXIS2_PLACEMENT_3D ( 'NONE', #117, #52, #171 ) ;
#209 = CALENDAR_DATE ( 2023, 13, 2 ) ;
#210 = CARTESIAN_POINT ( 'NONE',  ( 0.000000000000000000, 0.000000000000000000, 5.000000000000000000 ) ) ;
#211 = CARTESIAN_POINT ( 'NONE',  ( 0.000000000000000000, 0.000000000000000000, 0.000000000000000000 ) ) ;
#212 = PERSON_AND_ORGANIZATION ( #70, #186 ) ;
#213 = LINE ( 'NONE', #112, #152 ) ;
#214 = DIRECTION ( 'NONE',  ( -0.000000000000000000, -0.000000000000000000, -1.000000000000000000 ) ) ;
#215 = CC_DESIGN_APPROVAL ( #53, ( #254 ) ) ;
#216 = CARTESIAN_POINT ( 'NONE',  ( 0.000000000000000000, 0.000000000000000000, 5.000000000000000000 ) ) ;
#217 = DIRECTION ( 'NONE',  ( -0.000000000000000000, -0.000000000000000000, -1.000000000000000000 ) ) ;
#218 = EDGE_CURVE ( 'NONE', #91, #145, #69, .T. ) ;
#219 = CIRCLE ( 'NONE', #198, 3.500000000000000000 ) ;
#220 = VERTEX_POINT ( 'NONE', #102 ) ;
#221 = ADVANCED_FACE ( 'NONE', ( #40 ), #51, .F. ) ;
#222 = CARTESIAN_POINT ( 'NONE',  ( 0.000000000000000000, 0.000000000000000000, 5.000000000000000000 ) ) ;
#223 = ORIENTED_EDGE ( 'NONE', *, *, #107, .F. ) ;
#224 = VERTEX_POINT ( 'NONE', #136 ) ;
#225 = EDGE_LOOP ( 'NONE', ( #223, #20, #129, #240 ) ) ;
#226 = PERSON_AND_ORGANIZATION_ROLE ( 'design_owner' ) ;
#227 = FACE_OUTER_BOUND ( 'NONE', #191, .T. ) ;
#228 = PERSON_AND_ORGANIZATION_ROLE ( 'creator' ) ;
#229 = PERSON_AND_ORGANIZATION_ROLE ( 'creator' ) ;
#230 = CARTESIAN_POINT ( 'NONE',  ( 0.000000000000000000, 0.000000000000000000, 0.000000000000000000 ) ) ;
#231 = CIRCLE ( 'NONE', #163, 6.000000000000000888 ) ;
#232 = SECURITY_CLASSIFICATION_LEVEL ( 'unclassified' ) ;
#233 = MECHANICAL_CONTEXT ( 'NONE', #105, 'mechanical' ) ;
#234 = LINE ( 'NONE', #55, #81 ) ;
#235 = ORIENTED_EDGE ( 'NONE', *, *, #165, .T. ) ;
#236 = AXIS2_PLACEMENT_3D ( 'NONE', #162, #214, #45 ) ;
#237 = DIRECTION ( 'NONE',  ( 1.000000000000000000, 0.000000000000000000, 0.000000000000000000 ) ) ;
#238 = EDGE_LOOP ( 'NONE', ( #44, #111, #96, #47 ) ) ;
#239 = CIRCLE ( 'NONE', #134, 6.000000000000000888 ) ;
#240 = ORIENTED_EDGE ( 'NONE', *, *, #56, .F. ) ;
#241 = AXIS2_PLACEMENT_3D ( 'NONE', #14, #101, #175 ) ;
#242 = EDGE_CURVE ( 'NONE', #145, #91, #18, .T. ) ;
#243 = PRODUCT_RELATED_PRODUCT_CATEGORY ( 'detail', '', ( #83 ) ) ;
#244 = FACE_OUTER_BOUND ( 'NONE', #75, .T. ) ;
#245 = ORIENTED_EDGE ( 'NONE', *, *, #242, .T. ) ;
#246 = DIRECTION ( 'NONE',  ( 0.000000000000000000, 0.000000000000000000, 1.000000000000000000 ) ) ;
#247 = VERTEX_POINT ( 'NONE', #29 ) ;
#248 = APPROVAL_PERSON_ORGANIZATION ( #156, #180, #31 ) ;
#249 = DIRECTION ( 'NONE',  ( 1.000000000000000000, 0.000000000000000000, 0.000000000000000000 ) ) ;
#250 = APPLICATION_PROTOCOL_DEFINITION ( 'international standard', 'config_control_design', 1994, #105 ) ;
#251 = CARTESIAN_POINT ( 'NONE',  ( 0.000000000000000000, 0.000000000000000000, 160.0000000000000000 ) ) ;
#252 = COORDINATED_UNIVERSAL_TIME_OFFSET ( 1, 0, .AHEAD. ) ;
#253 = CARTESIAN_POINT ( 'NONE',  ( 0.000000000000000000, 0.000000000000000000, 5.000000000000000000 ) ) ;
#254 = SECURITY_CLASSIFICATION ( '', '', #232 ) ;
#255 = LOCAL_TIME ( 14, 36, 25.00000000000000000, #252 ) ;
ENDSEC;
END-ISO-10303-21;
