ISO-10303-21;
HEADER;
FILE_DESCRIPTION (( 'STEP AP203' ),
    '1' );
FILE_NAME ('bf4b.STEP',
    '2023-01-31T14:32:33',
    ( '' ),
    ( '' ),
    'SwSTEP 2.0',
    'SolidWorks 2019',
    '' );
FILE_SCHEMA (( 'CONFIG_CONTROL_DESIGN' ));
ENDSEC;

DATA;
#1 = VERTEX_POINT ( 'NONE', #160 ) ;
#2 = APPROVAL_DATE_TIME ( #98, #168 ) ;
#3 = EDGE_LOOP ( 'NONE', ( #194, #187 ) ) ;
#4 = DIRECTION ( 'NONE',  ( 1.000000000000000000, 0.000000000000000000, -0.000000000000000000 ) ) ;
#5 = DIRECTION ( 'NONE',  ( 0.000000000000000000, 0.000000000000000000, 1.000000000000000000 ) ) ;
#6 = DIRECTION ( 'NONE',  ( 0.000000000000000000, 0.000000000000000000, 1.000000000000000000 ) ) ;
#7 = ADVANCED_FACE ( 'NONE', ( #241, #69 ), #140, .T. ) ;
#8 = DIRECTION ( 'NONE',  ( 1.000000000000000000, 0.000000000000000000, 0.000000000000000000 ) ) ;
#9 = CIRCLE ( 'NONE', #49, 1.250000000000000000 ) ;
#10 = VECTOR ( 'NONE', #144, 1000.000000000000000 ) ;
#11 = ORIENTED_EDGE ( 'NONE', *, *, #90, .F. ) ;
#12 = DATE_AND_TIME ( #32, #76 ) ;
#13 = CALENDAR_DATE ( 2023, 31, 1 ) ;
#14 = CIRCLE ( 'NONE', #222, 0.5000000000000000000 ) ;
#15 = FACE_OUTER_BOUND ( 'NONE', #151, .T. ) ;
#16 = VERTEX_POINT ( 'NONE', #26 ) ;
#17 = APPROVAL_ROLE ( '' ) ;
#18 = AXIS2_PLACEMENT_3D ( 'NONE', #118, #165, #201 ) ;
#19 = CARTESIAN_POINT ( 'NONE',  ( 0.000000000000000000, 0.000000000000000000, 1.199999999999999956 ) ) ;
#20 = APPROVAL ( #181, 'NEURÈENÝ' ) ;
#21 = CARTESIAN_POINT ( 'NONE',  ( -1.250000000000000000, 0.000000000000000000, 1.199999999999999956 ) ) ;
#22 = PERSON_AND_ORGANIZATION ( #30, #182 ) ;
#23 = AXIS2_PLACEMENT_3D ( 'NONE', #121, #195, #4 ) ;
#24 = CYLINDRICAL_SURFACE ( 'NONE', #169, 0.5000000000000000000 ) ;
#25 = CARTESIAN_POINT ( 'NONE',  ( 0.000000000000000000, 0.000000000000000000, 1.199999999999999956 ) ) ;
#26 = CARTESIAN_POINT ( 'NONE',  ( -0.5000000000000000000, 0.000000000000000000, 1.199999999999999956 ) ) ;
#27 = APPROVAL_ROLE ( '' ) ;
#28 = LINE ( 'NONE', #105, #10 ) ;
#29 = DIRECTION ( 'NONE',  ( -0.000000000000000000, -0.000000000000000000, -1.000000000000000000 ) ) ;
#30 = PERSON ( 'NEURÈENÝ', 'NEURÈENÝ', 'NEURÈENÝ', ('NEURÈENÝ'), ('NEURÈENÝ'), ('NEURÈENÝ') ) ;
#31 = CARTESIAN_POINT ( 'NONE',  ( 0.000000000000000000, 0.000000000000000000, 100.0000000000000000 ) ) ;
#32 = CALENDAR_DATE ( 2023, 31, 1 ) ;
#33 = CC_DESIGN_APPROVAL ( #57, ( #243 ) ) ;
#34 = APPLICATION_PROTOCOL_DEFINITION ( 'international standard', 'config_control_design', 1994, #197 ) ;
#35 = VECTOR ( 'NONE', #172, 1000.000000000000000 ) ;
#36 = ORIENTED_EDGE ( 'NONE', *, *, #171, .T. ) ;
#37 = EDGE_CURVE ( 'NONE', #1, #136, #104, .T. ) ;
#38 = DIRECTION ( 'NONE',  ( 0.000000000000000000, 0.000000000000000000, 1.000000000000000000 ) ) ;
#39 = CIRCLE ( 'NONE', #62, 1.250000000000000000 ) ;
#40 = DIRECTION ( 'NONE',  ( 1.000000000000000000, 0.000000000000000000, -0.000000000000000000 ) ) ;
#41 = EDGE_LOOP ( 'NONE', ( #11, #108, #67, #109 ) ) ;
#42 = PERSON_AND_ORGANIZATION ( #30, #182 ) ;
#43 = EDGE_CURVE ( 'NONE', #81, #136, #213, .T. ) ;
#44 = DIRECTION ( 'NONE',  ( -0.000000000000000000, -0.000000000000000000, -1.000000000000000000 ) ) ;
#45 = VECTOR ( 'NONE', #44, 1000.000000000000000 ) ;
#46 = CARTESIAN_POINT ( 'NONE',  ( 0.5000000000000000000, 6.123233995736766036E-17, 100.0000000000000000 ) ) ;
#47 = ORIENTED_EDGE ( 'NONE', *, *, #91, .T. ) ;
#48 = PLANE ( 'NONE',  #23 ) ;
#49 = AXIS2_PLACEMENT_3D ( 'NONE', #25, #244, #103 ) ;
#50 = DIRECTION ( 'NONE',  ( -0.000000000000000000, -0.000000000000000000, -1.000000000000000000 ) ) ;
#51 = ADVANCED_FACE ( 'NONE', ( #15 ), #234, .T. ) ;
#52 = LINE ( 'NONE', #203, #115 ) ;
#53 = APPROVAL_PERSON_ORGANIZATION ( #152, #57, #27 ) ;
#54 = MECHANICAL_CONTEXT ( 'NONE', #212, 'mechanical' ) ;
#55 = PRODUCT_RELATED_PRODUCT_CATEGORY ( 'detail', '', ( #88 ) ) ;
#56 = COORDINATED_UNIVERSAL_TIME_OFFSET ( 1, 0, .AHEAD. ) ;
#57 = APPROVAL ( #232, 'NEURÈENÝ' ) ;
#58 = CARTESIAN_POINT ( 'NONE',  ( 0.000000000000000000, 0.000000000000000000, 1.199999999999999956 ) ) ;
#59 = ORIENTED_EDGE ( 'NONE', *, *, #114, .F. ) ;
#60 = PERSON_AND_ORGANIZATION ( #30, #182 ) ;
#61 = DIRECTION ( 'NONE',  ( -1.000000000000000000, 0.000000000000000000, 0.000000000000000000 ) ) ;
#62 = AXIS2_PLACEMENT_3D ( 'NONE', #19, #191, #188 ) ;
#63 = VERTEX_POINT ( 'NONE', #78 ) ;
#64 = SHAPE_DEFINITION_REPRESENTATION ( #106, #71 ) ;
#65 = CIRCLE ( 'NONE', #190, 1.250000000000000000 ) ;
#66 = PRODUCT_DEFINITION_FORMATION_WITH_SPECIFIED_SOURCE ( 'LIBOVOLNÝ', '', #88, .NOT_KNOWN. ) ;
#67 = ORIENTED_EDGE ( 'NONE', *, *, #245, .T. ) ;
#68 = DATE_AND_TIME ( #179, #154 ) ;
#69 = FACE_OUTER_BOUND ( 'NONE', #79, .T. ) ;
#70 = CARTESIAN_POINT ( 'NONE',  ( 0.000000000000000000, 0.000000000000000000, 1.199999999999999956 ) ) ;
#71 = ADVANCED_BREP_SHAPE_REPRESENTATION ( 'bf4b', ( #117, #226 ), #196 ) ;
#72 = CC_DESIGN_SECURITY_CLASSIFICATION ( #243, ( #66 ) ) ;
#73 = ADVANCED_FACE ( 'NONE', ( #149 ), #227, .T. ) ;
#74 = CLOSED_SHELL ( 'NONE', ( #180, #229, #73, #7, #127, #51, #186 ) ) ;
#75 = CC_DESIGN_PERSON_AND_ORGANIZATION_ASSIGNMENT ( #102, #254, ( #66 ) ) ;
#76 = LOCAL_TIME ( 15, 32, 33.00000000000000000, #56 ) ;
#77 = DIRECTION ( 'NONE',  ( 0.000000000000000000, 0.000000000000000000, 1.000000000000000000 ) ) ;
#78 = CARTESIAN_POINT ( 'NONE',  ( 0.5000000000000000000, 6.123233995736766036E-17, 1.199999999999999956 ) ) ;
#79 = EDGE_LOOP ( 'NONE', ( #155, #85 ) ) ;
#80 = CARTESIAN_POINT ( 'NONE',  ( 0.000000000000000000, 0.000000000000000000, 100.0000000000000000 ) ) ;
#81 = VERTEX_POINT ( 'NONE', #176 ) ;
#82 = CALENDAR_DATE ( 2023, 31, 1 ) ;
#83 = CARTESIAN_POINT ( 'NONE',  ( 0.000000000000000000, 0.000000000000000000, 100.0000000000000000 ) ) ;
#84 = VERTEX_POINT ( 'NONE', #153 ) ;
#85 = ORIENTED_EDGE ( 'NONE', *, *, #114, .T. ) ;
#86 = CC_DESIGN_PERSON_AND_ORGANIZATION_ASSIGNMENT ( #42, #156, ( #66 ) ) ;
#87 = VERTEX_POINT ( 'NONE', #150 ) ;
#88 = PRODUCT ( 'bf4b', 'bf4b', '', ( #54 ) ) ;
#89 = CYLINDRICAL_SURFACE ( 'NONE', #95, 1.250000000000000000 ) ;
#90 = EDGE_CURVE ( 'NONE', #138, #87, #167, .T. ) ;
#91 = EDGE_CURVE ( 'NONE', #87, #16, #193, .T. ) ;
#92 = EDGE_LOOP ( 'NONE', ( #132, #209 ) ) ;
#93 = FACE_OUTER_BOUND ( 'NONE', #173, .T. ) ;
#94 = ORIENTED_EDGE ( 'NONE', *, *, #43, .T. ) ;
#95 = AXIS2_PLACEMENT_3D ( 'NONE', #70, #240, #100 ) ;
#96 = CC_DESIGN_DATE_AND_TIME_ASSIGNMENT ( #178, #137, ( #207 ) ) ;
#97 = AXIS2_PLACEMENT_3D ( 'NONE', #58, #211, #61 ) ;
#98 = DATE_AND_TIME ( #82, #130 ) ;
#99 = APPROVAL_PERSON_ORGANIZATION ( #113, #168, #17 ) ;
#100 = DIRECTION ( 'NONE',  ( -1.000000000000000000, 0.000000000000000000, 0.000000000000000000 ) ) ;
#101 = ORIENTED_EDGE ( 'NONE', *, *, #143, .F. ) ;
#102 = PERSON_AND_ORGANIZATION ( #30, #182 ) ;
#103 = DIRECTION ( 'NONE',  ( 1.000000000000000000, 0.000000000000000000, 0.000000000000000000 ) ) ;
#104 = LINE ( 'NONE', #21, #35 ) ;
#105 = CARTESIAN_POINT ( 'NONE',  ( 0.5000000000000000000, 6.123233995736766036E-17, 100.0000000000000000 ) ) ;
#106 = PRODUCT_DEFINITION_SHAPE ( 'NONE', 'NONE',  #207 ) ;
#107 = CC_DESIGN_PERSON_AND_ORGANIZATION_ASSIGNMENT ( #60, #133, ( #207 ) ) ;
#108 = ORIENTED_EDGE ( 'NONE', *, *, #237, .T. ) ;
#109 = ORIENTED_EDGE ( 'NONE', *, *, #91, .F. ) ;
#110 = DIRECTION ( 'NONE',  ( 1.000000000000000000, 0.000000000000000000, 0.000000000000000000 ) ) ;
#111 = COORDINATED_UNIVERSAL_TIME_OFFSET ( 1, 0, .AHEAD. ) ;
#112 = ORIENTED_EDGE ( 'NONE', *, *, #146, .T. ) ;
#113 = PERSON_AND_ORGANIZATION ( #30, #182 ) ;
#114 = EDGE_CURVE ( 'NONE', #84, #1, #39, .T. ) ;
#115 = VECTOR ( 'NONE', #50, 1000.000000000000000 ) ;
#116 = COORDINATED_UNIVERSAL_TIME_OFFSET ( 1, 0, .AHEAD. ) ;
#117 = MANIFOLD_SOLID_BREP ( 'Pøidat vysunutím3', #74 ) ;
#118 = CARTESIAN_POINT ( 'NONE',  ( 0.000000000000000000, 0.000000000000000000, 1.199999999999999956 ) ) ;
#119 = CARTESIAN_POINT ( 'NONE',  ( 0.000000000000000000, 0.000000000000000000, 1.199999999999999956 ) ) ;
#120 = APPROVAL_STATUS ( 'not_yet_approved' ) ;
#121 = CARTESIAN_POINT ( 'NONE',  ( 0.000000000000000000, 0.000000000000000000, 100.0000000000000000 ) ) ;
#122 = CC_DESIGN_PERSON_AND_ORGANIZATION_ASSIGNMENT ( #22, #159, ( #243 ) ) ;
#123 = FACE_OUTER_BOUND ( 'NONE', #41, .T. ) ;
#124 = LOCAL_TIME ( 15, 32, 33.00000000000000000, #111 ) ;
#125 = CARTESIAN_POINT ( 'NONE',  ( 0.000000000000000000, 0.000000000000000000, 100.0000000000000000 ) ) ;
#126 =( NAMED_UNIT ( * ) SI_UNIT ( $, .STERADIAN. ) SOLID_ANGLE_UNIT ( ) );
#127 = ADVANCED_FACE ( 'NONE', ( #93 ), #174, .F. ) ;
#128 = PERSON_AND_ORGANIZATION ( #30, #182 ) ;
#129 = APPLICATION_PROTOCOL_DEFINITION ( 'international standard', 'config_control_design', 1994, #212 ) ;
#130 = LOCAL_TIME ( 15, 32, 33.00000000000000000, #161 ) ;
#131 = CARTESIAN_POINT ( 'NONE',  ( 0.000000000000000000, 0.000000000000000000, 1.199999999999999956 ) ) ;
#132 = ORIENTED_EDGE ( 'NONE', *, *, #146, .F. ) ;
#133 = PERSON_AND_ORGANIZATION_ROLE ( 'creator' ) ;
#134 = DIRECTION ( 'NONE',  ( 0.000000000000000000, 0.000000000000000000, 1.000000000000000000 ) ) ;
#135 = CARTESIAN_POINT ( 'NONE',  ( 0.000000000000000000, 0.000000000000000000, 0.000000000000000000 ) ) ;
#136 = VERTEX_POINT ( 'NONE', #163 ) ;
#137 = DATE_TIME_ROLE ( 'creation_date' ) ;
#138 = VERTEX_POINT ( 'NONE', #46 ) ;
#139 = APPROVAL_DATE_TIME ( #214, #57 ) ;
#140 = PLANE ( 'NONE',  #231 ) ;
#141 = CC_DESIGN_PERSON_AND_ORGANIZATION_ASSIGNMENT ( #128, #206, ( #88 ) ) ;
#142 = AXIS2_PLACEMENT_3D ( 'NONE', #83, #157, #147 ) ;
#143 = EDGE_CURVE ( 'NONE', #1, #84, #9, .T. ) ;
#144 = DIRECTION ( 'NONE',  ( -0.000000000000000000, -0.000000000000000000, -1.000000000000000000 ) ) ;
#145 = DESIGN_CONTEXT ( 'detailed design', #197, 'design' ) ;
#146 = EDGE_CURVE ( 'NONE', #16, #63, #184, .T. ) ;
#147 = DIRECTION ( 'NONE',  ( -1.000000000000000000, 0.000000000000000000, 0.000000000000000000 ) ) ;
#148 = PERSON_AND_ORGANIZATION ( #30, #182 ) ;
#149 = FACE_OUTER_BOUND ( 'NONE', #158, .T. ) ;
#150 = CARTESIAN_POINT ( 'NONE',  ( -0.5000000000000000000, 0.000000000000000000, 100.0000000000000000 ) ) ;
#151 = EDGE_LOOP ( 'NONE', ( #170, #219, #47, #112 ) ) ;
#152 = PERSON_AND_ORGANIZATION ( #30, #182 ) ;
#153 = CARTESIAN_POINT ( 'NONE',  ( 1.250000000000000000, 1.530808498934191571E-16, 1.199999999999999956 ) ) ;
#154 = LOCAL_TIME ( 15, 32, 33.00000000000000000, #116 ) ;
#155 = ORIENTED_EDGE ( 'NONE', *, *, #143, .T. ) ;
#156 = PERSON_AND_ORGANIZATION_ROLE ( 'design_supplier' ) ;
#157 = DIRECTION ( 'NONE',  ( -0.000000000000000000, -0.000000000000000000, -1.000000000000000000 ) ) ;
#158 = EDGE_LOOP ( 'NONE', ( #221, #101, #217, #235 ) ) ;
#159 = PERSON_AND_ORGANIZATION_ROLE ( 'classification_officer' ) ;
#160 = CARTESIAN_POINT ( 'NONE',  ( -1.250000000000000000, 0.000000000000000000, 1.199999999999999956 ) ) ;
#161 = COORDINATED_UNIVERSAL_TIME_OFFSET ( 1, 0, .AHEAD. ) ;
#162 = DIRECTION ( 'NONE',  ( 1.000000000000000000, 0.000000000000000000, 0.000000000000000000 ) ) ;
#163 = CARTESIAN_POINT ( 'NONE',  ( -1.250000000000000000, 0.000000000000000000, 0.000000000000000000 ) ) ;
#164 = UNCERTAINTY_MEASURE_WITH_UNIT (LENGTH_MEASURE( 1.000000000000000082E-05 ), #224, 'distance_accuracy_value', 'NONE');
#165 = DIRECTION ( 'NONE',  ( 0.000000000000000000, 0.000000000000000000, 1.000000000000000000 ) ) ;
#166 = CARTESIAN_POINT ( 'NONE',  ( 0.000000000000000000, 0.000000000000000000, 0.000000000000000000 ) ) ;
#167 = CIRCLE ( 'NONE', #223, 0.5000000000000000000 ) ;
#168 = APPROVAL ( #120, 'NEURÈENÝ' ) ;
#169 = AXIS2_PLACEMENT_3D ( 'NONE', #125, #29, #198 ) ;
#170 = ORIENTED_EDGE ( 'NONE', *, *, #237, .F. ) ;
#171 = EDGE_CURVE ( 'NONE', #84, #81, #52, .T. ) ;
#172 = DIRECTION ( 'NONE',  ( -0.000000000000000000, -0.000000000000000000, -1.000000000000000000 ) ) ;
#173 = EDGE_LOOP ( 'NONE', ( #192, #251 ) ) ;
#174 = PLANE ( 'NONE',  #202 ) ;
#175 = DIRECTION ( 'NONE',  ( 0.000000000000000000, 0.000000000000000000, 1.000000000000000000 ) ) ;
#176 = CARTESIAN_POINT ( 'NONE',  ( 1.250000000000000000, 1.530808498934191571E-16, 0.000000000000000000 ) ) ;
#177 = DIRECTION ( 'NONE',  ( 0.000000000000000000, 0.000000000000000000, 1.000000000000000000 ) ) ;
#178 = DATE_AND_TIME ( #13, #124 ) ;
#179 = CALENDAR_DATE ( 2023, 31, 1 ) ;
#180 = ADVANCED_FACE ( 'NONE', ( #123 ), #24, .T. ) ;
#181 = APPROVAL_STATUS ( 'not_yet_approved' ) ;
#182 = ORGANIZATION ( 'NEURÈENÝ', 'NEURÈENÝ', '' ) ;
#183 = CARTESIAN_POINT ( 'NONE',  ( 0.000000000000000000, 0.000000000000000000, 0.000000000000000000 ) ) ;
#184 = CIRCLE ( 'NONE', #18, 0.5000000000000000000 ) ;
#185 = LOCAL_TIME ( 15, 32, 33.00000000000000000, #218 ) ;
#186 = ADVANCED_FACE ( 'NONE', ( #205 ), #48, .T. ) ;
#187 = ORIENTED_EDGE ( 'NONE', *, *, #90, .T. ) ;
#188 = DIRECTION ( 'NONE',  ( 1.000000000000000000, 0.000000000000000000, 0.000000000000000000 ) ) ;
#189 = DIRECTION ( 'NONE',  ( 1.000000000000000000, 0.000000000000000000, 0.000000000000000000 ) ) ;
#190 = AXIS2_PLACEMENT_3D ( 'NONE', #183, #77, #8 ) ;
#191 = DIRECTION ( 'NONE',  ( 0.000000000000000000, 0.000000000000000000, 1.000000000000000000 ) ) ;
#192 = ORIENTED_EDGE ( 'NONE', *, *, #248, .F. ) ;
#193 = LINE ( 'NONE', #215, #45 ) ;
#194 = ORIENTED_EDGE ( 'NONE', *, *, #200, .T. ) ;
#195 = DIRECTION ( 'NONE',  ( 0.000000000000000000, 0.000000000000000000, 1.000000000000000000 ) ) ;
#196 =( GEOMETRIC_REPRESENTATION_CONTEXT ( 3 ) GLOBAL_UNCERTAINTY_ASSIGNED_CONTEXT ( ( #164 ) ) GLOBAL_UNIT_ASSIGNED_CONTEXT ( ( #224, #247, #126 ) ) REPRESENTATION_CONTEXT ( 'NONE', 'WORKASPACE' ) );
#197 = APPLICATION_CONTEXT ( 'configuration controlled 3d designs of mechanical parts and assemblies' ) ;
#198 = DIRECTION ( 'NONE',  ( -1.000000000000000000, 0.000000000000000000, 0.000000000000000000 ) ) ;
#199 = DIRECTION ( 'NONE',  ( 1.000000000000000000, 0.000000000000000000, -0.000000000000000000 ) ) ;
#200 = EDGE_CURVE ( 'NONE', #87, #138, #14, .T. ) ;
#201 = DIRECTION ( 'NONE',  ( 1.000000000000000000, 0.000000000000000000, 0.000000000000000000 ) ) ;
#202 = AXIS2_PLACEMENT_3D ( 'NONE', #250, #134, #40 ) ;
#203 = CARTESIAN_POINT ( 'NONE',  ( 1.250000000000000000, 1.530808498934191571E-16, 1.199999999999999956 ) ) ;
#204 = AXIS2_PLACEMENT_3D ( 'NONE', #131, #175, #189 ) ;
#205 = FACE_OUTER_BOUND ( 'NONE', #3, .T. ) ;
#206 = PERSON_AND_ORGANIZATION_ROLE ( 'design_owner' ) ;
#207 = PRODUCT_DEFINITION ( 'NEZNÁMÝ', '', #66, #145 ) ;
#208 = DIRECTION ( 'NONE',  ( 0.000000000000000000, 0.000000000000000000, 1.000000000000000000 ) ) ;
#209 = ORIENTED_EDGE ( 'NONE', *, *, #245, .F. ) ;
#210 = APPROVAL_PERSON_ORGANIZATION ( #148, #20, #225 ) ;
#211 = DIRECTION ( 'NONE',  ( -0.000000000000000000, -0.000000000000000000, -1.000000000000000000 ) ) ;
#212 = APPLICATION_CONTEXT ( 'configuration controlled 3d designs of mechanical parts and assemblies' ) ;
#213 = CIRCLE ( 'NONE', #252, 1.250000000000000000 ) ;
#214 = DATE_AND_TIME ( #239, #185 ) ;
#215 = CARTESIAN_POINT ( 'NONE',  ( -0.5000000000000000000, 0.000000000000000000, 100.0000000000000000 ) ) ;
#216 = ORIENTED_EDGE ( 'NONE', *, *, #37, .F. ) ;
#217 = ORIENTED_EDGE ( 'NONE', *, *, #37, .T. ) ;
#218 = COORDINATED_UNIVERSAL_TIME_OFFSET ( 1, 0, .AHEAD. ) ;
#219 = ORIENTED_EDGE ( 'NONE', *, *, #200, .F. ) ;
#220 = CC_DESIGN_DATE_AND_TIME_ASSIGNMENT ( #68, #230, ( #243 ) ) ;
#221 = ORIENTED_EDGE ( 'NONE', *, *, #171, .F. ) ;
#222 = AXIS2_PLACEMENT_3D ( 'NONE', #31, #6, #162 ) ;
#223 = AXIS2_PLACEMENT_3D ( 'NONE', #80, #38, #110 ) ;
#224 =( LENGTH_UNIT ( ) NAMED_UNIT ( * ) SI_UNIT ( .MILLI., .METRE. ) );
#225 = APPROVAL_ROLE ( '' ) ;
#226 = AXIS2_PLACEMENT_3D ( 'NONE', #166, #208, #246 ) ;
#227 = CYLINDRICAL_SURFACE ( 'NONE', #97, 1.250000000000000000 ) ;
#228 = APPROVAL_DATE_TIME ( #12, #20 ) ;
#229 = ADVANCED_FACE ( 'NONE', ( #242 ), #89, .T. ) ;
#230 = DATE_TIME_ROLE ( 'classification_date' ) ;
#231 = AXIS2_PLACEMENT_3D ( 'NONE', #119, #5, #199 ) ;
#232 = APPROVAL_STATUS ( 'not_yet_approved' ) ;
#233 = CC_DESIGN_APPROVAL ( #20, ( #207 ) ) ;
#234 = CYLINDRICAL_SURFACE ( 'NONE', #142, 0.5000000000000000000 ) ;
#235 = ORIENTED_EDGE ( 'NONE', *, *, #248, .T. ) ;
#236 = SECURITY_CLASSIFICATION_LEVEL ( 'unclassified' ) ;
#237 = EDGE_CURVE ( 'NONE', #138, #63, #28, .T. ) ;
#238 = EDGE_LOOP ( 'NONE', ( #59, #36, #94, #216 ) ) ;
#239 = CALENDAR_DATE ( 2023, 31, 1 ) ;
#240 = DIRECTION ( 'NONE',  ( -0.000000000000000000, -0.000000000000000000, -1.000000000000000000 ) ) ;
#241 = FACE_BOUND ( 'NONE', #92, .T. ) ;
#242 = FACE_OUTER_BOUND ( 'NONE', #238, .T. ) ;
#243 = SECURITY_CLASSIFICATION ( '', '', #236 ) ;
#244 = DIRECTION ( 'NONE',  ( 0.000000000000000000, 0.000000000000000000, 1.000000000000000000 ) ) ;
#245 = EDGE_CURVE ( 'NONE', #63, #16, #255, .T. ) ;
#246 = DIRECTION ( 'NONE',  ( 1.000000000000000000, 0.000000000000000000, 0.000000000000000000 ) ) ;
#247 =( NAMED_UNIT ( * ) PLANE_ANGLE_UNIT ( ) SI_UNIT ( $, .RADIAN. ) );
#248 = EDGE_CURVE ( 'NONE', #136, #81, #65, .T. ) ;
#249 = CC_DESIGN_APPROVAL ( #168, ( #66 ) ) ;
#250 = CARTESIAN_POINT ( 'NONE',  ( 0.000000000000000000, 0.000000000000000000, 0.000000000000000000 ) ) ;
#251 = ORIENTED_EDGE ( 'NONE', *, *, #43, .F. ) ;
#252 = AXIS2_PLACEMENT_3D ( 'NONE', #135, #177, #253 ) ;
#253 = DIRECTION ( 'NONE',  ( 1.000000000000000000, 0.000000000000000000, 0.000000000000000000 ) ) ;
#254 = PERSON_AND_ORGANIZATION_ROLE ( 'creator' ) ;
#255 = CIRCLE ( 'NONE', #204, 0.5000000000000000000 ) ;
ENDSEC;
END-ISO-10303-21;
