ISO-10303-21;
HEADER;
FILE_DESCRIPTION (( 'STEP AP203' ),
    '1' );
FILE_NAME ('b60d.STEP',
    '2023-02-13T12:06:33',
    ( '' ),
    ( '' ),
    'SwSTEP 2.0',
    'SolidWorks 2019',
    '' );
FILE_SCHEMA (( 'CONFIG_CONTROL_DESIGN' ));
ENDSEC;

DATA;
#1 = DIRECTION ( 'NONE',  ( 0.000000000000000000, 0.000000000000000000, 1.000000000000000000 ) ) ;
#2 = EDGE_LOOP ( 'NONE', ( #16, #252 ) ) ;
#3 = CARTESIAN_POINT ( 'NONE',  ( -5.000000000000000888, 0.000000000000000000, 250.0000000000000000 ) ) ;
#4 = DIRECTION ( 'NONE',  ( 0.000000000000000000, 0.000000000000000000, 1.000000000000000000 ) ) ;
#5 = DIRECTION ( 'NONE',  ( -1.000000000000000000, 0.000000000000000000, 0.000000000000000000 ) ) ;
#6 = MANIFOLD_SOLID_BREP ( 'Pøidat vysunutím3', #70 ) ;
#7 = ADVANCED_FACE ( 'NONE', ( #201, #114 ), #134, .T. ) ;
#8 = CARTESIAN_POINT ( 'NONE',  ( -5.000000000000000888, 0.000000000000000000, 5.000000000000000000 ) ) ;
#9 = DIRECTION ( 'NONE',  ( 1.000000000000000000, 0.000000000000000000, -0.000000000000000000 ) ) ;
#10 = PRODUCT_DEFINITION_SHAPE ( 'NONE', 'NONE',  #124 ) ;
#11 = EDGE_CURVE ( 'NONE', #153, #125, #138, .T. ) ;
#12 = PERSON_AND_ORGANIZATION_ROLE ( 'creator' ) ;
#13 = PERSON_AND_ORGANIZATION ( #57, #162 ) ;
#14 = PERSON_AND_ORGANIZATION_ROLE ( 'design_supplier' ) ;
#15 = PERSON_AND_ORGANIZATION_ROLE ( 'design_owner' ) ;
#16 = ORIENTED_EDGE ( 'NONE', *, *, #185, .T. ) ;
#17 = APPROVAL_PERSON_ORGANIZATION ( #13, #218, #94 ) ;
#18 =( GEOMETRIC_REPRESENTATION_CONTEXT ( 3 ) GLOBAL_UNCERTAINTY_ASSIGNED_CONTEXT ( ( #211 ) ) GLOBAL_UNIT_ASSIGNED_CONTEXT ( ( #166, #244, #105 ) ) REPRESENTATION_CONTEXT ( 'NONE', 'WORKASPACE' ) );
#19 = ORIENTED_EDGE ( 'NONE', *, *, #167, .F. ) ;
#20 = CC_DESIGN_PERSON_AND_ORGANIZATION_ASSIGNMENT ( #54, #189, ( #196 ) ) ;
#21 = CARTESIAN_POINT ( 'NONE',  ( 0.000000000000000000, 0.000000000000000000, 5.000000000000000000 ) ) ;
#22 = CARTESIAN_POINT ( 'NONE',  ( 0.000000000000000000, 0.000000000000000000, 250.0000000000000000 ) ) ;
#23 = ORIENTED_EDGE ( 'NONE', *, *, #147, .T. ) ;
#24 = VERTEX_POINT ( 'NONE', #83 ) ;
#25 = AXIS2_PLACEMENT_3D ( 'NONE', #238, #217, #235 ) ;
#26 = AXIS2_PLACEMENT_3D ( 'NONE', #119, #206, #44 ) ;
#27 = CARTESIAN_POINT ( 'NONE',  ( 5.000000000000000888, 6.123233995736767268E-16, 5.000000000000000000 ) ) ;
#28 = CARTESIAN_POINT ( 'NONE',  ( 0.000000000000000000, 0.000000000000000000, 0.000000000000000000 ) ) ;
#29 = AXIS2_PLACEMENT_3D ( 'NONE', #118, #121, #224 ) ;
#30 = FACE_OUTER_BOUND ( 'NONE', #154, .T. ) ;
#31 = COORDINATED_UNIVERSAL_TIME_OFFSET ( 1, 0, .AHEAD. ) ;
#32 = APPROVAL_ROLE ( '' ) ;
#33 = ORIENTED_EDGE ( 'NONE', *, *, #11, .F. ) ;
#34 = COORDINATED_UNIVERSAL_TIME_OFFSET ( 1, 0, .AHEAD. ) ;
#35 = ORIENTED_EDGE ( 'NONE', *, *, #11, .T. ) ;
#36 = DATE_AND_TIME ( #230, #220 ) ;
#37 = LOCAL_TIME ( 13, 6, 33.00000000000000000, #31 ) ;
#38 = VERTEX_POINT ( 'NONE', #59 ) ;
#39 = DIRECTION ( 'NONE',  ( -0.000000000000000000, -0.000000000000000000, -1.000000000000000000 ) ) ;
#40 = FACE_OUTER_BOUND ( 'NONE', #80, .T. ) ;
#41 = DIRECTION ( 'NONE',  ( 0.000000000000000000, 0.000000000000000000, 1.000000000000000000 ) ) ;
#42 = EDGE_CURVE ( 'NONE', #77, #24, #219, .T. ) ;
#43 = ORIENTED_EDGE ( 'NONE', *, *, #185, .F. ) ;
#44 = DIRECTION ( 'NONE',  ( -1.000000000000000000, 0.000000000000000000, 0.000000000000000000 ) ) ;
#45 = AXIS2_PLACEMENT_3D ( 'NONE', #22, #101, #5 ) ;
#46 = FACE_OUTER_BOUND ( 'NONE', #178, .T. ) ;
#47 = CARTESIAN_POINT ( 'NONE',  ( 5.000000000000000888, 6.123233995736767268E-16, 250.0000000000000000 ) ) ;
#48 = CARTESIAN_POINT ( 'NONE',  ( 5.000000000000000888, 6.123233995736767268E-16, 250.0000000000000000 ) ) ;
#49 = EDGE_CURVE ( 'NONE', #125, #153, #245, .T. ) ;
#50 = CYLINDRICAL_SURFACE ( 'NONE', #29, 8.000000000000000000 ) ;
#51 = APPLICATION_PROTOCOL_DEFINITION ( 'international standard', 'config_control_design', 1994, #100 ) ;
#52 = ORIENTED_EDGE ( 'NONE', *, *, #147, .F. ) ;
#53 = ADVANCED_BREP_SHAPE_REPRESENTATION ( 'b60d', ( #6, #148 ), #18 ) ;
#54 = PERSON_AND_ORGANIZATION ( #57, #162 ) ;
#55 = EDGE_CURVE ( 'NONE', #240, #153, #160, .T. ) ;
#56 = ORIENTED_EDGE ( 'NONE', *, *, #171, .F. ) ;
#57 = PERSON ( 'NEURÈENÝ', 'NEURÈENÝ', 'NEURÈENÝ', ('NEURÈENÝ'), ('NEURÈENÝ'), ('NEURÈENÝ') ) ;
#58 = CC_DESIGN_APPROVAL ( #246, ( #225 ) ) ;
#59 = CARTESIAN_POINT ( 'NONE',  ( 8.000000000000000000, 9.797174393178825657E-16, 0.000000000000000000 ) ) ;
#60 = ORIENTED_EDGE ( 'NONE', *, *, #69, .F. ) ;
#61 = DIRECTION ( 'NONE',  ( 0.000000000000000000, 0.000000000000000000, 1.000000000000000000 ) ) ;
#62 = DIRECTION ( 'NONE',  ( -0.000000000000000000, -0.000000000000000000, -1.000000000000000000 ) ) ;
#63 = CIRCLE ( 'NONE', #106, 5.000000000000000888 ) ;
#64 = DIRECTION ( 'NONE',  ( 0.000000000000000000, 0.000000000000000000, 1.000000000000000000 ) ) ;
#65 = CC_DESIGN_PERSON_AND_ORGANIZATION_ASSIGNMENT ( #234, #123, ( #124 ) ) ;
#66 = DIRECTION ( 'NONE',  ( 1.000000000000000000, 0.000000000000000000, 0.000000000000000000 ) ) ;
#67 = DESIGN_CONTEXT ( 'detailed design', #100, 'design' ) ;
#68 = LINE ( 'NONE', #143, #133 ) ;
#69 = EDGE_CURVE ( 'NONE', #79, #77, #173, .T. ) ;
#70 = CLOSED_SHELL ( 'NONE', ( #227, #161, #93, #7, #78, #104, #239 ) ) ;
#71 = AXIS2_PLACEMENT_3D ( 'NONE', #228, #4, #223 ) ;
#72 = COORDINATED_UNIVERSAL_TIME_OFFSET ( 1, 0, .AHEAD. ) ;
#73 = PERSON_AND_ORGANIZATION ( #57, #162 ) ;
#74 = PRODUCT ( 'b60d', 'b60d', '', ( #247 ) ) ;
#75 = CIRCLE ( 'NONE', #71, 8.000000000000000000 ) ;
#76 = APPROVAL_DATE_TIME ( #254, #218 ) ;
#77 = VERTEX_POINT ( 'NONE', #99 ) ;
#78 = ADVANCED_FACE ( 'NONE', ( #179 ), #103, .F. ) ;
#79 = VERTEX_POINT ( 'NONE', #81 ) ;
#80 = EDGE_LOOP ( 'NONE', ( #52, #157, #137, #35 ) ) ;
#81 = CARTESIAN_POINT ( 'NONE',  ( 8.000000000000000000, 9.797174393178825657E-16, 5.000000000000000000 ) ) ;
#82 = ORIENTED_EDGE ( 'NONE', *, *, #116, .F. ) ;
#83 = CARTESIAN_POINT ( 'NONE',  ( -8.000000000000000000, 0.000000000000000000, 0.000000000000000000 ) ) ;
#84 = VECTOR ( 'NONE', #62, 1000.000000000000000 ) ;
#85 = DIRECTION ( 'NONE',  ( 0.000000000000000000, 0.000000000000000000, 1.000000000000000000 ) ) ;
#86 = APPROVAL_PERSON_ORGANIZATION ( #251, #212, #90 ) ;
#87 = DIRECTION ( 'NONE',  ( 0.000000000000000000, 0.000000000000000000, 1.000000000000000000 ) ) ;
#88 = DIRECTION ( 'NONE',  ( 1.000000000000000000, 0.000000000000000000, 0.000000000000000000 ) ) ;
#89 = APPROVAL_PERSON_ORGANIZATION ( #151, #246, #32 ) ;
#90 = APPROVAL_ROLE ( '' ) ;
#91 = CALENDAR_DATE ( 2023, 13, 2 ) ;
#92 = AXIS2_PLACEMENT_3D ( 'NONE', #102, #41, #182 ) ;
#93 = ADVANCED_FACE ( 'NONE', ( #158 ), #221, .T. ) ;
#94 = APPROVAL_ROLE ( '' ) ;
#95 = DATE_TIME_ROLE ( 'creation_date' ) ;
#96 = DATE_AND_TIME ( #91, #169 ) ;
#97 = ORIENTED_EDGE ( 'NONE', *, *, #193, .T. ) ;
#98 = ORIENTED_EDGE ( 'NONE', *, *, #49, .T. ) ;
#99 = CARTESIAN_POINT ( 'NONE',  ( -8.000000000000000000, 0.000000000000000000, 5.000000000000000000 ) ) ;
#100 = APPLICATION_CONTEXT ( 'configuration controlled 3d designs of mechanical parts and assemblies' ) ;
#101 = DIRECTION ( 'NONE',  ( -0.000000000000000000, -0.000000000000000000, -1.000000000000000000 ) ) ;
#102 = CARTESIAN_POINT ( 'NONE',  ( 0.000000000000000000, 0.000000000000000000, 5.000000000000000000 ) ) ;
#103 = PLANE ( 'NONE',  #111 ) ;
#104 = ADVANCED_FACE ( 'NONE', ( #40 ), #199, .T. ) ;
#105 =( NAMED_UNIT ( * ) SI_UNIT ( $, .STERADIAN. ) SOLID_ANGLE_UNIT ( ) );
#106 = AXIS2_PLACEMENT_3D ( 'NONE', #187, #120, #66 ) ;
#107 = DIRECTION ( 'NONE',  ( 0.000000000000000000, 0.000000000000000000, 1.000000000000000000 ) ) ;
#108 = DIRECTION ( 'NONE',  ( 0.000000000000000000, 0.000000000000000000, 1.000000000000000000 ) ) ;
#109 = SECURITY_CLASSIFICATION_LEVEL ( 'unclassified' ) ;
#110 = ORIENTED_EDGE ( 'NONE', *, *, #55, .F. ) ;
#111 = AXIS2_PLACEMENT_3D ( 'NONE', #139, #1, #183 ) ;
#112 = EDGE_LOOP ( 'NONE', ( #56, #43, #172, #97 ) ) ;
#113 = CARTESIAN_POINT ( 'NONE',  ( -8.000000000000000000, 0.000000000000000000, 5.000000000000000000 ) ) ;
#114 = FACE_OUTER_BOUND ( 'NONE', #2, .T. ) ;
#115 = CARTESIAN_POINT ( 'NONE',  ( 0.000000000000000000, 0.000000000000000000, 5.000000000000000000 ) ) ;
#116 = EDGE_CURVE ( 'NONE', #38, #24, #236, .T. ) ;
#117 = DIRECTION ( 'NONE',  ( 0.000000000000000000, 0.000000000000000000, 1.000000000000000000 ) ) ;
#118 = CARTESIAN_POINT ( 'NONE',  ( 0.000000000000000000, 0.000000000000000000, 5.000000000000000000 ) ) ;
#119 = CARTESIAN_POINT ( 'NONE',  ( 0.000000000000000000, 0.000000000000000000, 250.0000000000000000 ) ) ;
#120 = DIRECTION ( 'NONE',  ( 0.000000000000000000, 0.000000000000000000, 1.000000000000000000 ) ) ;
#121 = DIRECTION ( 'NONE',  ( -0.000000000000000000, -0.000000000000000000, -1.000000000000000000 ) ) ;
#122 = CIRCLE ( 'NONE', #163, 8.000000000000000000 ) ;
#123 = PERSON_AND_ORGANIZATION_ROLE ( 'creator' ) ;
#124 = PRODUCT_DEFINITION ( 'NEZNÁMÝ', '', #225, #67 ) ;
#125 = VERTEX_POINT ( 'NONE', #27 ) ;
#126 = APPROVAL_DATE_TIME ( #36, #212 ) ;
#127 = VECTOR ( 'NONE', #39, 1000.000000000000000 ) ;
#128 = LOCAL_TIME ( 13, 6, 33.00000000000000000, #34 ) ;
#129 = SHAPE_DEFINITION_REPRESENTATION ( #10, #53 ) ;
#130 = EDGE_LOOP ( 'NONE', ( #132, #82 ) ) ;
#131 = PERSON_AND_ORGANIZATION ( #57, #162 ) ;
#132 = ORIENTED_EDGE ( 'NONE', *, *, #193, .F. ) ;
#133 = VECTOR ( 'NONE', #243, 1000.000000000000000 ) ;
#134 = PLANE ( 'NONE',  #253 ) ;
#135 = CC_DESIGN_DATE_AND_TIME_ASSIGNMENT ( #250, #191, ( #196 ) ) ;
#136 = ORIENTED_EDGE ( 'NONE', *, *, #42, .F. ) ;
#137 = ORIENTED_EDGE ( 'NONE', *, *, #55, .T. ) ;
#138 = CIRCLE ( 'NONE', #195, 5.000000000000000888 ) ;
#139 = CARTESIAN_POINT ( 'NONE',  ( 0.000000000000000000, 0.000000000000000000, 0.000000000000000000 ) ) ;
#140 = CARTESIAN_POINT ( 'NONE',  ( -5.000000000000000888, 0.000000000000000000, 250.0000000000000000 ) ) ;
#141 = DIRECTION ( 'NONE',  ( 1.000000000000000000, 0.000000000000000000, 0.000000000000000000 ) ) ;
#142 = CIRCLE ( 'NONE', #175, 5.000000000000000888 ) ;
#143 = CARTESIAN_POINT ( 'NONE',  ( 8.000000000000000000, 9.797174393178825657E-16, 5.000000000000000000 ) ) ;
#144 = PRODUCT_RELATED_PRODUCT_CATEGORY ( 'detail', '', ( #74 ) ) ;
#145 = CARTESIAN_POINT ( 'NONE',  ( 0.000000000000000000, 0.000000000000000000, 0.000000000000000000 ) ) ;
#146 = DIRECTION ( 'NONE',  ( -0.000000000000000000, -0.000000000000000000, -1.000000000000000000 ) ) ;
#147 = EDGE_CURVE ( 'NONE', #181, #125, #165, .T. ) ;
#148 = AXIS2_PLACEMENT_3D ( 'NONE', #28, #107, #188 ) ;
#149 = COORDINATED_UNIVERSAL_TIME_OFFSET ( 1, 0, .AHEAD. ) ;
#150 = DATE_AND_TIME ( #213, #128 ) ;
#151 = PERSON_AND_ORGANIZATION ( #57, #162 ) ;
#152 = PERSON_AND_ORGANIZATION ( #57, #162 ) ;
#153 = VERTEX_POINT ( 'NONE', #8 ) ;
#154 = EDGE_LOOP ( 'NONE', ( #60, #194, #233, #136 ) ) ;
#155 = CC_DESIGN_PERSON_AND_ORGANIZATION_ASSIGNMENT ( #73, #14, ( #225 ) ) ;
#156 = AXIS2_PLACEMENT_3D ( 'NONE', #226, #87, #186 ) ;
#157 = ORIENTED_EDGE ( 'NONE', *, *, #177, .F. ) ;
#158 = FACE_OUTER_BOUND ( 'NONE', #112, .T. ) ;
#159 = EDGE_LOOP ( 'NONE', ( #33, #174 ) ) ;
#160 = LINE ( 'NONE', #3, #127 ) ;
#161 = ADVANCED_FACE ( 'NONE', ( #30 ), #50, .T. ) ;
#162 = ORGANIZATION ( 'NEURÈENÝ', 'NEURÈENÝ', '' ) ;
#163 = AXIS2_PLACEMENT_3D ( 'NONE', #145, #85, #88 ) ;
#164 = FACE_OUTER_BOUND ( 'NONE', #197, .T. ) ;
#165 = LINE ( 'NONE', #47, #192 ) ;
#166 =( LENGTH_UNIT ( ) NAMED_UNIT ( * ) SI_UNIT ( .MILLI., .METRE. ) );
#167 = EDGE_CURVE ( 'NONE', #181, #240, #142, .T. ) ;
#168 = APPROVAL_DATE_TIME ( #150, #246 ) ;
#169 = LOCAL_TIME ( 13, 6, 33.00000000000000000, #149 ) ;
#170 = APPROVAL_STATUS ( 'not_yet_approved' ) ;
#171 = EDGE_CURVE ( 'NONE', #79, #38, #68, .T. ) ;
#172 = ORIENTED_EDGE ( 'NONE', *, *, #42, .T. ) ;
#173 = CIRCLE ( 'NONE', #229, 8.000000000000000000 ) ;
#174 = ORIENTED_EDGE ( 'NONE', *, *, #49, .F. ) ;
#175 = AXIS2_PLACEMENT_3D ( 'NONE', #208, #108, #141 ) ;
#176 = LOCAL_TIME ( 13, 6, 33.00000000000000000, #214 ) ;
#177 = EDGE_CURVE ( 'NONE', #240, #181, #63, .T. ) ;
#178 = EDGE_LOOP ( 'NONE', ( #19, #23, #98, #110 ) ) ;
#179 = FACE_OUTER_BOUND ( 'NONE', #130, .T. ) ;
#180 = AXIS2_PLACEMENT_3D ( 'NONE', #207, #64, #9 ) ;
#181 = VERTEX_POINT ( 'NONE', #48 ) ;
#182 = DIRECTION ( 'NONE',  ( 1.000000000000000000, 0.000000000000000000, 0.000000000000000000 ) ) ;
#183 = DIRECTION ( 'NONE',  ( 1.000000000000000000, 0.000000000000000000, -0.000000000000000000 ) ) ;
#184 = APPLICATION_PROTOCOL_DEFINITION ( 'international standard', 'config_control_design', 1994, #190 ) ;
#185 = EDGE_CURVE ( 'NONE', #77, #79, #75, .T. ) ;
#186 = DIRECTION ( 'NONE',  ( 1.000000000000000000, 0.000000000000000000, 0.000000000000000000 ) ) ;
#187 = CARTESIAN_POINT ( 'NONE',  ( 0.000000000000000000, 0.000000000000000000, 250.0000000000000000 ) ) ;
#188 = DIRECTION ( 'NONE',  ( 1.000000000000000000, 0.000000000000000000, 0.000000000000000000 ) ) ;
#189 = PERSON_AND_ORGANIZATION_ROLE ( 'classification_officer' ) ;
#190 = APPLICATION_CONTEXT ( 'configuration controlled 3d designs of mechanical parts and assemblies' ) ;
#191 = DATE_TIME_ROLE ( 'classification_date' ) ;
#192 = VECTOR ( 'NONE', #146, 1000.000000000000000 ) ;
#193 = EDGE_CURVE ( 'NONE', #24, #38, #122, .T. ) ;
#194 = ORIENTED_EDGE ( 'NONE', *, *, #171, .T. ) ;
#195 = AXIS2_PLACEMENT_3D ( 'NONE', #21, #202, #241 ) ;
#196 = SECURITY_CLASSIFICATION ( '', '', #109 ) ;
#197 = EDGE_LOOP ( 'NONE', ( #215, #237 ) ) ;
#198 = DIRECTION ( 'NONE',  ( 1.000000000000000000, 0.000000000000000000, 0.000000000000000000 ) ) ;
#199 = CYLINDRICAL_SURFACE ( 'NONE', #45, 5.000000000000000888 ) ;
#200 = CC_DESIGN_APPROVAL ( #218, ( #124 ) ) ;
#201 = FACE_BOUND ( 'NONE', #159, .T. ) ;
#202 = DIRECTION ( 'NONE',  ( 0.000000000000000000, 0.000000000000000000, 1.000000000000000000 ) ) ;
#203 = CYLINDRICAL_SURFACE ( 'NONE', #26, 5.000000000000000888 ) ;
#204 = CC_DESIGN_DATE_AND_TIME_ASSIGNMENT ( #96, #95, ( #124 ) ) ;
#205 = CC_DESIGN_SECURITY_CLASSIFICATION ( #196, ( #225 ) ) ;
#206 = DIRECTION ( 'NONE',  ( -0.000000000000000000, -0.000000000000000000, -1.000000000000000000 ) ) ;
#207 = CARTESIAN_POINT ( 'NONE',  ( 0.000000000000000000, 0.000000000000000000, 250.0000000000000000 ) ) ;
#208 = CARTESIAN_POINT ( 'NONE',  ( 0.000000000000000000, 0.000000000000000000, 250.0000000000000000 ) ) ;
#209 = CC_DESIGN_APPROVAL ( #212, ( #196 ) ) ;
#210 = APPROVAL_STATUS ( 'not_yet_approved' ) ;
#211 = UNCERTAINTY_MEASURE_WITH_UNIT (LENGTH_MEASURE( 1.000000000000000082E-05 ), #166, 'distance_accuracy_value', 'NONE');
#212 = APPROVAL ( #231, 'NEURÈENÝ' ) ;
#213 = CALENDAR_DATE ( 2023, 13, 2 ) ;
#214 = COORDINATED_UNIVERSAL_TIME_OFFSET ( 1, 0, .AHEAD. ) ;
#215 = ORIENTED_EDGE ( 'NONE', *, *, #177, .T. ) ;
#216 = CARTESIAN_POINT ( 'NONE',  ( 0.000000000000000000, 0.000000000000000000, 5.000000000000000000 ) ) ;
#217 = DIRECTION ( 'NONE',  ( -0.000000000000000000, -0.000000000000000000, -1.000000000000000000 ) ) ;
#218 = APPROVAL ( #210, 'NEURÈENÝ' ) ;
#219 = LINE ( 'NONE', #113, #84 ) ;
#220 = LOCAL_TIME ( 13, 6, 33.00000000000000000, #72 ) ;
#221 = CYLINDRICAL_SURFACE ( 'NONE', #25, 8.000000000000000000 ) ;
#222 = CC_DESIGN_PERSON_AND_ORGANIZATION_ASSIGNMENT ( #152, #15, ( #74 ) ) ;
#223 = DIRECTION ( 'NONE',  ( 1.000000000000000000, 0.000000000000000000, 0.000000000000000000 ) ) ;
#224 = DIRECTION ( 'NONE',  ( -1.000000000000000000, 0.000000000000000000, 0.000000000000000000 ) ) ;
#225 = PRODUCT_DEFINITION_FORMATION_WITH_SPECIFIED_SOURCE ( 'LIBOVOLNÝ', '', #74, .NOT_KNOWN. ) ;
#226 = CARTESIAN_POINT ( 'NONE',  ( 0.000000000000000000, 0.000000000000000000, 0.000000000000000000 ) ) ;
#227 = ADVANCED_FACE ( 'NONE', ( #46 ), #203, .T. ) ;
#228 = CARTESIAN_POINT ( 'NONE',  ( 0.000000000000000000, 0.000000000000000000, 5.000000000000000000 ) ) ;
#229 = AXIS2_PLACEMENT_3D ( 'NONE', #216, #117, #198 ) ;
#230 = CALENDAR_DATE ( 2023, 13, 2 ) ;
#231 = APPROVAL_STATUS ( 'not_yet_approved' ) ;
#232 = CALENDAR_DATE ( 2023, 13, 2 ) ;
#233 = ORIENTED_EDGE ( 'NONE', *, *, #116, .T. ) ;
#234 = PERSON_AND_ORGANIZATION ( #57, #162 ) ;
#235 = DIRECTION ( 'NONE',  ( -1.000000000000000000, 0.000000000000000000, 0.000000000000000000 ) ) ;
#236 = CIRCLE ( 'NONE', #156, 8.000000000000000000 ) ;
#237 = ORIENTED_EDGE ( 'NONE', *, *, #167, .T. ) ;
#238 = CARTESIAN_POINT ( 'NONE',  ( 0.000000000000000000, 0.000000000000000000, 5.000000000000000000 ) ) ;
#239 = ADVANCED_FACE ( 'NONE', ( #164 ), #242, .T. ) ;
#240 = VERTEX_POINT ( 'NONE', #140 ) ;
#241 = DIRECTION ( 'NONE',  ( 1.000000000000000000, 0.000000000000000000, 0.000000000000000000 ) ) ;
#242 = PLANE ( 'NONE',  #180 ) ;
#243 = DIRECTION ( 'NONE',  ( -0.000000000000000000, -0.000000000000000000, -1.000000000000000000 ) ) ;
#244 =( NAMED_UNIT ( * ) PLANE_ANGLE_UNIT ( ) SI_UNIT ( $, .RADIAN. ) );
#245 = CIRCLE ( 'NONE', #92, 5.000000000000000888 ) ;
#246 = APPROVAL ( #170, 'NEURÈENÝ' ) ;
#247 = MECHANICAL_CONTEXT ( 'NONE', #190, 'mechanical' ) ;
#248 = CC_DESIGN_PERSON_AND_ORGANIZATION_ASSIGNMENT ( #131, #12, ( #225 ) ) ;
#249 = CALENDAR_DATE ( 2023, 13, 2 ) ;
#250 = DATE_AND_TIME ( #232, #176 ) ;
#251 = PERSON_AND_ORGANIZATION ( #57, #162 ) ;
#252 = ORIENTED_EDGE ( 'NONE', *, *, #69, .T. ) ;
#253 = AXIS2_PLACEMENT_3D ( 'NONE', #115, #61, #255 ) ;
#254 = DATE_AND_TIME ( #249, #37 ) ;
#255 = DIRECTION ( 'NONE',  ( 1.000000000000000000, 0.000000000000000000, -0.000000000000000000 ) ) ;
ENDSEC;
END-ISO-10303-21;
