ISO-10303-21;
HEADER;
FILE_DESCRIPTION (( 'STEP AP203' ),
    '1' );
FILE_NAME ('20dc.STEP',
    '2023-02-13T15:37:50',
    ( '' ),
    ( '' ),
    'SwSTEP 2.0',
    'SolidWorks 2019',
    '' );
FILE_SCHEMA (( 'CONFIG_CONTROL_DESIGN' ));
ENDSEC;

DATA;
#1 = PERSON_AND_ORGANIZATION_ROLE ( 'creator' ) ;
#2 = PERSON_AND_ORGANIZATION ( #79, #146 ) ;
#3 = EDGE_CURVE ( 'NONE', #223, #148, #182, .T. ) ;
#4 = AXIS2_PLACEMENT_3D ( 'NONE', #96, #180, #7 ) ;
#5 = DIRECTION ( 'NONE',  ( 0.000000000000000000, 0.000000000000000000, 1.000000000000000000 ) ) ;
#6 = ORIENTED_EDGE ( 'NONE', *, *, #99, .T. ) ;
#7 = DIRECTION ( 'NONE',  ( 1.000000000000000000, 0.000000000000000000, 0.000000000000000000 ) ) ;
#8 = VERTEX_POINT ( 'NONE', #46 ) ;
#9 = EDGE_CURVE ( 'NONE', #237, #8, #91, .T. ) ;
#10 = DIRECTION ( 'NONE',  ( 0.000000000000000000, 0.000000000000000000, 1.000000000000000000 ) ) ;
#11 = ORIENTED_EDGE ( 'NONE', *, *, #112, .T. ) ;
#12 = DIRECTION ( 'NONE',  ( 1.000000000000000000, 0.000000000000000000, 0.000000000000000000 ) ) ;
#13 = ORIENTED_EDGE ( 'NONE', *, *, #216, .F. ) ;
#14 = CARTESIAN_POINT ( 'NONE',  ( -1.500000000000000222, 0.000000000000000000, 3.000000000000000000 ) ) ;
#15 = DIRECTION ( 'NONE',  ( 0.000000000000000000, 0.000000000000000000, 1.000000000000000000 ) ) ;
#16 = EDGE_CURVE ( 'NONE', #165, #27, #110, .T. ) ;
#17 = AXIS2_PLACEMENT_3D ( 'NONE', #32, #10, #139 ) ;
#18 = DATE_AND_TIME ( #249, #171 ) ;
#19 = EDGE_LOOP ( 'NONE', ( #181, #11 ) ) ;
#20 = PERSON_AND_ORGANIZATION ( #79, #146 ) ;
#21 = DATE_AND_TIME ( #228, #136 ) ;
#22 = APPROVAL ( #105, 'NEURÈENÝ' ) ;
#23 = FACE_OUTER_BOUND ( 'NONE', #247, .T. ) ;
#24 = ORIENTED_EDGE ( 'NONE', *, *, #16, .T. ) ;
#25 = DIRECTION ( 'NONE',  ( 1.000000000000000000, 0.000000000000000000, 0.000000000000000000 ) ) ;
#26 = AXIS2_PLACEMENT_3D ( 'NONE', #226, #122, #33 ) ;
#27 = VERTEX_POINT ( 'NONE', #100 ) ;
#28 = DIRECTION ( 'NONE',  ( -1.000000000000000000, 0.000000000000000000, 0.000000000000000000 ) ) ;
#29 = CARTESIAN_POINT ( 'NONE',  ( 0.000000000000000000, 0.000000000000000000, 125.0000000000000000 ) ) ;
#30 = CC_DESIGN_PERSON_AND_ORGANIZATION_ASSIGNMENT ( #231, #191, ( #218 ) ) ;
#31 = DIRECTION ( 'NONE',  ( 0.000000000000000000, 0.000000000000000000, 1.000000000000000000 ) ) ;
#32 = CARTESIAN_POINT ( 'NONE',  ( 0.000000000000000000, 0.000000000000000000, 3.000000000000000000 ) ) ;
#33 = DIRECTION ( 'NONE',  ( 1.000000000000000000, 0.000000000000000000, 0.000000000000000000 ) ) ;
#34 = CYLINDRICAL_SURFACE ( 'NONE', #52, 3.000000000000000444 ) ;
#35 = APPROVAL ( #93, 'NEURÈENÝ' ) ;
#36 = DIRECTION ( 'NONE',  ( 1.000000000000000000, 0.000000000000000000, 0.000000000000000000 ) ) ;
#37 = CC_DESIGN_DATE_AND_TIME_ASSIGNMENT ( #159, #90, ( #243 ) ) ;
#38 = AXIS2_PLACEMENT_3D ( 'NONE', #60, #210, #41 ) ;
#39 = DIRECTION ( 'NONE',  ( 1.000000000000000000, 0.000000000000000000, 0.000000000000000000 ) ) ;
#40 = CARTESIAN_POINT ( 'NONE',  ( 0.000000000000000000, 0.000000000000000000, 0.000000000000000000 ) ) ;
#41 = DIRECTION ( 'NONE',  ( -1.000000000000000000, 0.000000000000000000, 0.000000000000000000 ) ) ;
#42 = AXIS2_PLACEMENT_3D ( 'NONE', #81, #15, #36 ) ;
#43 = AXIS2_PLACEMENT_3D ( 'NONE', #117, #195, #186 ) ;
#44 = CYLINDRICAL_SURFACE ( 'NONE', #158, 3.000000000000000444 ) ;
#45 = ORIENTED_EDGE ( 'NONE', *, *, #178, .F. ) ;
#46 = CARTESIAN_POINT ( 'NONE',  ( 1.500000000000000222, 1.836970198721029934E-16, 3.000000000000000000 ) ) ;
#47 = CC_DESIGN_APPROVAL ( #236, ( #218 ) ) ;
#48 = DIRECTION ( 'NONE',  ( 0.000000000000000000, 0.000000000000000000, 1.000000000000000000 ) ) ;
#49 = ORIENTED_EDGE ( 'NONE', *, *, #138, .T. ) ;
#50 = DIRECTION ( 'NONE',  ( 0.000000000000000000, 0.000000000000000000, 1.000000000000000000 ) ) ;
#51 = EDGE_LOOP ( 'NONE', ( #238, #49, #172, #95 ) ) ;
#52 = AXIS2_PLACEMENT_3D ( 'NONE', #240, #61, #162 ) ;
#53 = COORDINATED_UNIVERSAL_TIME_OFFSET ( 1, 0, .AHEAD. ) ;
#54 = PERSON_AND_ORGANIZATION ( #79, #146 ) ;
#55 = CALENDAR_DATE ( 2023, 13, 2 ) ;
#56 = CC_DESIGN_PERSON_AND_ORGANIZATION_ASSIGNMENT ( #54, #73, ( #251 ) ) ;
#57 = CARTESIAN_POINT ( 'NONE',  ( 0.000000000000000000, 0.000000000000000000, 3.000000000000000000 ) ) ;
#58 = SECURITY_CLASSIFICATION_LEVEL ( 'unclassified' ) ;
#59 = CALENDAR_DATE ( 2023, 13, 2 ) ;
#60 = CARTESIAN_POINT ( 'NONE',  ( 0.000000000000000000, 0.000000000000000000, 125.0000000000000000 ) ) ;
#61 = DIRECTION ( 'NONE',  ( -0.000000000000000000, -0.000000000000000000, -1.000000000000000000 ) ) ;
#62 = ADVANCED_FACE ( 'NONE', ( #69 ), #169, .T. ) ;
#63 = CARTESIAN_POINT ( 'NONE',  ( 0.000000000000000000, 0.000000000000000000, 125.0000000000000000 ) ) ;
#64 = FACE_OUTER_BOUND ( 'NONE', #67, .T. ) ;
#65 = VERTEX_POINT ( 'NONE', #225 ) ;
#66 = CARTESIAN_POINT ( 'NONE',  ( -3.000000000000000444, 0.000000000000000000, 3.000000000000000000 ) ) ;
#67 = EDGE_LOOP ( 'NONE', ( #125, #13 ) ) ;
#68 = LINE ( 'NONE', #222, #224 ) ;
#69 = FACE_OUTER_BOUND ( 'NONE', #126, .T. ) ;
#70 = PERSON_AND_ORGANIZATION_ROLE ( 'design_supplier' ) ;
#71 = VECTOR ( 'NONE', #141, 1000.000000000000000 ) ;
#72 = FACE_OUTER_BOUND ( 'NONE', #242, .T. ) ;
#73 = PERSON_AND_ORGANIZATION_ROLE ( 'classification_officer' ) ;
#74 = EDGE_CURVE ( 'NONE', #27, #165, #179, .T. ) ;
#75 = LOCAL_TIME ( 16, 37, 50.00000000000000000, #157 ) ;
#76 = LINE ( 'NONE', #80, #71 ) ;
#77 = ADVANCED_FACE ( 'NONE', ( #89 ), #170, .T. ) ;
#78 = PERSON_AND_ORGANIZATION_ROLE ( 'design_owner' ) ;
#79 = PERSON ( 'NEURÈENÝ', 'NEURÈENÝ', 'NEURÈENÝ', ('NEURÈENÝ'), ('NEURÈENÝ'), ('NEURÈENÝ') ) ;
#80 = CARTESIAN_POINT ( 'NONE',  ( 3.000000000000000444, 3.673940397442060361E-16, 3.000000000000000000 ) ) ;
#81 = CARTESIAN_POINT ( 'NONE',  ( 0.000000000000000000, 0.000000000000000000, 3.000000000000000000 ) ) ;
#82 = CARTESIAN_POINT ( 'NONE',  ( -3.000000000000000444, 0.000000000000000000, 0.000000000000000000 ) ) ;
#83 = ORIENTED_EDGE ( 'NONE', *, *, #16, .F. ) ;
#84 = LOCAL_TIME ( 16, 37, 50.00000000000000000, #53 ) ;
#85 = DIRECTION ( 'NONE',  ( -0.000000000000000000, -0.000000000000000000, -1.000000000000000000 ) ) ;
#86 = ADVANCED_FACE ( 'NONE', ( #253, #72 ), #156, .T. ) ;
#87 = CARTESIAN_POINT ( 'NONE',  ( 0.000000000000000000, 0.000000000000000000, 0.000000000000000000 ) ) ;
#88 = ORIENTED_EDGE ( 'NONE', *, *, #152, .T. ) ;
#89 = FACE_OUTER_BOUND ( 'NONE', #19, .T. ) ;
#90 = DATE_TIME_ROLE ( 'creation_date' ) ;
#91 = CIRCLE ( 'NONE', #26, 1.500000000000000222 ) ;
#92 = PERSON_AND_ORGANIZATION ( #79, #146 ) ;
#93 = APPROVAL_STATUS ( 'not_yet_approved' ) ;
#94 = CC_DESIGN_PERSON_AND_ORGANIZATION_ASSIGNMENT ( #174, #1, ( #243 ) ) ;
#95 = ORIENTED_EDGE ( 'NONE', *, *, #194, .F. ) ;
#96 = CARTESIAN_POINT ( 'NONE',  ( 0.000000000000000000, 0.000000000000000000, 0.000000000000000000 ) ) ;
#97 = DIRECTION ( 'NONE',  ( -1.000000000000000000, 0.000000000000000000, 0.000000000000000000 ) ) ;
#98 = VECTOR ( 'NONE', #217, 1000.000000000000000 ) ;
#99 = EDGE_CURVE ( 'NONE', #118, #8, #108, .T. ) ;
#100 = CARTESIAN_POINT ( 'NONE',  ( 3.000000000000000444, 3.673940397442060361E-16, 3.000000000000000000 ) ) ;
#101 = CARTESIAN_POINT ( 'NONE',  ( -1.500000000000000222, 0.000000000000000000, 125.0000000000000000 ) ) ;
#102 = ORIENTED_EDGE ( 'NONE', *, *, #202, .F. ) ;
#103 = ADVANCED_FACE ( 'NONE', ( #23 ), #233, .T. ) ;
#104 = DIRECTION ( 'NONE',  ( -0.000000000000000000, -0.000000000000000000, -1.000000000000000000 ) ) ;
#105 = APPROVAL_STATUS ( 'not_yet_approved' ) ;
#106 = ORIENTED_EDGE ( 'NONE', *, *, #112, .F. ) ;
#107 = AXIS2_PLACEMENT_3D ( 'NONE', #87, #31, #144 ) ;
#108 = LINE ( 'NONE', #127, #115 ) ;
#109 = CALENDAR_DATE ( 2023, 13, 2 ) ;
#110 = CIRCLE ( 'NONE', #42, 3.000000000000000444 ) ;
#111 = APPLICATION_PROTOCOL_DEFINITION ( 'international standard', 'config_control_design', 1994, #133 ) ;
#112 = EDGE_CURVE ( 'NONE', #118, #65, #173, .T. ) ;
#113 = CARTESIAN_POINT ( 'NONE',  ( 0.000000000000000000, 0.000000000000000000, 125.0000000000000000 ) ) ;
#114 =( NAMED_UNIT ( * ) SI_UNIT ( $, .STERADIAN. ) SOLID_ANGLE_UNIT ( ) );
#115 = VECTOR ( 'NONE', #104, 1000.000000000000000 ) ;
#116 = CC_DESIGN_APPROVAL ( #22, ( #251 ) ) ;
#117 = CARTESIAN_POINT ( 'NONE',  ( 0.000000000000000000, 0.000000000000000000, 0.000000000000000000 ) ) ;
#118 = VERTEX_POINT ( 'NONE', #193 ) ;
#119 = ORIENTED_EDGE ( 'NONE', *, *, #3, .T. ) ;
#120 = CC_DESIGN_PERSON_AND_ORGANIZATION_ASSIGNMENT ( #92, #78, ( #248 ) ) ;
#121 = LINE ( 'NONE', #101, #98 ) ;
#122 = DIRECTION ( 'NONE',  ( 0.000000000000000000, 0.000000000000000000, 1.000000000000000000 ) ) ;
#123 = DIRECTION ( 'NONE',  ( -0.000000000000000000, -0.000000000000000000, -1.000000000000000000 ) ) ;
#124 = UNCERTAINTY_MEASURE_WITH_UNIT (LENGTH_MEASURE( 1.000000000000000082E-05 ), #183, 'distance_accuracy_value', 'NONE');
#125 = ORIENTED_EDGE ( 'NONE', *, *, #3, .F. ) ;
#126 = EDGE_LOOP ( 'NONE', ( #106, #6, #88, #102 ) ) ;
#127 = CARTESIAN_POINT ( 'NONE',  ( 1.500000000000000222, 1.836970198721029934E-16, 125.0000000000000000 ) ) ;
#128 = APPROVAL_ROLE ( '' ) ;
#129 = CC_DESIGN_DATE_AND_TIME_ASSIGNMENT ( #208, #229, ( #251 ) ) ;
#130 = DIRECTION ( 'NONE',  ( 0.000000000000000000, 0.000000000000000000, 1.000000000000000000 ) ) ;
#131 = APPROVAL_DATE_TIME ( #18, #35 ) ;
#132 = CC_DESIGN_APPROVAL ( #35, ( #243 ) ) ;
#133 = APPLICATION_CONTEXT ( 'configuration controlled 3d designs of mechanical parts and assemblies' ) ;
#134 = DATE_AND_TIME ( #59, #84 ) ;
#135 = MANIFOLD_SOLID_BREP ( 'Pøidat vysunutím3', #234 ) ;
#136 = LOCAL_TIME ( 16, 37, 50.00000000000000000, #150 ) ;
#137 = CC_DESIGN_SECURITY_CLASSIFICATION ( #251, ( #218 ) ) ;
#138 = EDGE_CURVE ( 'NONE', #27, #148, #76, .T. ) ;
#139 = DIRECTION ( 'NONE',  ( 1.000000000000000000, 0.000000000000000000, 0.000000000000000000 ) ) ;
#140 = ORIENTED_EDGE ( 'NONE', *, *, #74, .T. ) ;
#141 = DIRECTION ( 'NONE',  ( -0.000000000000000000, -0.000000000000000000, -1.000000000000000000 ) ) ;
#142 = EDGE_LOOP ( 'NONE', ( #143, #241 ) ) ;
#143 = ORIENTED_EDGE ( 'NONE', *, *, #9, .F. ) ;
#144 = DIRECTION ( 'NONE',  ( 1.000000000000000000, 0.000000000000000000, 0.000000000000000000 ) ) ;
#145 = CARTESIAN_POINT ( 'NONE',  ( 0.000000000000000000, 0.000000000000000000, 3.000000000000000000 ) ) ;
#146 = ORGANIZATION ( 'NEURÈENÝ', 'NEURÈENÝ', '' ) ;
#147 = CC_DESIGN_PERSON_AND_ORGANIZATION_ASSIGNMENT ( #254, #70, ( #218 ) ) ;
#148 = VERTEX_POINT ( 'NONE', #244 ) ;
#149 = AXIS2_PLACEMENT_3D ( 'NONE', #145, #48, #187 ) ;
#150 = COORDINATED_UNIVERSAL_TIME_OFFSET ( 1, 0, .AHEAD. ) ;
#151 = APPROVAL_PERSON_ORGANIZATION ( #2, #35, #160 ) ;
#152 = EDGE_CURVE ( 'NONE', #8, #237, #211, .T. ) ;
#153 = COORDINATED_UNIVERSAL_TIME_OFFSET ( 1, 0, .AHEAD. ) ;
#154 = DIRECTION ( 'NONE',  ( 1.000000000000000000, 0.000000000000000000, -0.000000000000000000 ) ) ;
#155 = SHAPE_DEFINITION_REPRESENTATION ( #204, #161 ) ;
#156 = PLANE ( 'NONE',  #230 ) ;
#157 = COORDINATED_UNIVERSAL_TIME_OFFSET ( 1, 0, .AHEAD. ) ;
#158 = AXIS2_PLACEMENT_3D ( 'NONE', #164, #123, #28 ) ;
#159 = DATE_AND_TIME ( #55, #75 ) ;
#160 = APPROVAL_ROLE ( '' ) ;
#161 = ADVANCED_BREP_SHAPE_REPRESENTATION ( '20dc', ( #135, #246 ), #213 ) ;
#162 = DIRECTION ( 'NONE',  ( -1.000000000000000000, 0.000000000000000000, 0.000000000000000000 ) ) ;
#163 = ADVANCED_FACE ( 'NONE', ( #167 ), #44, .T. ) ;
#164 = CARTESIAN_POINT ( 'NONE',  ( 0.000000000000000000, 0.000000000000000000, 3.000000000000000000 ) ) ;
#165 = VERTEX_POINT ( 'NONE', #66 ) ;
#166 = ORIENTED_EDGE ( 'NONE', *, *, #194, .T. ) ;
#167 = FACE_OUTER_BOUND ( 'NONE', #51, .T. ) ;
#168 = DESIGN_CONTEXT ( 'detailed design', #175, 'design' ) ;
#169 = CYLINDRICAL_SURFACE ( 'NONE', #207, 1.500000000000000222 ) ;
#170 = PLANE ( 'NONE',  #250 ) ;
#171 = LOCAL_TIME ( 16, 37, 50.00000000000000000, #252 ) ;
#172 = ORIENTED_EDGE ( 'NONE', *, *, #216, .T. ) ;
#173 = CIRCLE ( 'NONE', #239, 1.500000000000000222 ) ;
#174 = PERSON_AND_ORGANIZATION ( #79, #146 ) ;
#175 = APPLICATION_CONTEXT ( 'configuration controlled 3d designs of mechanical parts and assemblies' ) ;
#176 = PRODUCT_RELATED_PRODUCT_CATEGORY ( 'detail', '', ( #248 ) ) ;
#177 = CIRCLE ( 'NONE', #235, 1.500000000000000222 ) ;
#178 = EDGE_CURVE ( 'NONE', #65, #118, #177, .T. ) ;
#179 = CIRCLE ( 'NONE', #149, 3.000000000000000444 ) ;
#180 = DIRECTION ( 'NONE',  ( 0.000000000000000000, 0.000000000000000000, 1.000000000000000000 ) ) ;
#181 = ORIENTED_EDGE ( 'NONE', *, *, #178, .T. ) ;
#182 = CIRCLE ( 'NONE', #107, 3.000000000000000444 ) ;
#183 =( LENGTH_UNIT ( ) NAMED_UNIT ( * ) SI_UNIT ( .MILLI., .METRE. ) );
#184 = APPROVAL_PERSON_ORGANIZATION ( #20, #22, #189 ) ;
#185 = DIRECTION ( 'NONE',  ( 0.000000000000000000, 0.000000000000000000, 1.000000000000000000 ) ) ;
#186 = DIRECTION ( 'NONE',  ( 1.000000000000000000, 0.000000000000000000, -0.000000000000000000 ) ) ;
#187 = DIRECTION ( 'NONE',  ( 1.000000000000000000, 0.000000000000000000, 0.000000000000000000 ) ) ;
#188 = CIRCLE ( 'NONE', #4, 3.000000000000000444 ) ;
#189 = APPROVAL_ROLE ( '' ) ;
#190 = APPROVAL_STATUS ( 'not_yet_approved' ) ;
#191 = PERSON_AND_ORGANIZATION_ROLE ( 'creator' ) ;
#192 = APPROVAL_PERSON_ORGANIZATION ( #232, #236, #128 ) ;
#193 = CARTESIAN_POINT ( 'NONE',  ( 1.500000000000000222, 1.836970198721029934E-16, 125.0000000000000000 ) ) ;
#194 = EDGE_CURVE ( 'NONE', #165, #223, #68, .T. ) ;
#195 = DIRECTION ( 'NONE',  ( 0.000000000000000000, 0.000000000000000000, 1.000000000000000000 ) ) ;
#196 = ORIENTED_EDGE ( 'NONE', *, *, #202, .T. ) ;
#197 = ADVANCED_FACE ( 'NONE', ( #200 ), #34, .T. ) ;
#198 =( NAMED_UNIT ( * ) PLANE_ANGLE_UNIT ( ) SI_UNIT ( $, .RADIAN. ) );
#199 = ORIENTED_EDGE ( 'NONE', *, *, #138, .F. ) ;
#200 = FACE_OUTER_BOUND ( 'NONE', #220, .T. ) ;
#201 = ORIENTED_EDGE ( 'NONE', *, *, #99, .F. ) ;
#202 = EDGE_CURVE ( 'NONE', #65, #237, #121, .T. ) ;
#203 = APPROVAL_DATE_TIME ( #21, #22 ) ;
#204 = PRODUCT_DEFINITION_SHAPE ( 'NONE', 'NONE',  #243 ) ;
#205 = DIRECTION ( 'NONE',  ( 1.000000000000000000, 0.000000000000000000, -0.000000000000000000 ) ) ;
#206 = ADVANCED_FACE ( 'NONE', ( #64 ), #219, .F. ) ;
#207 = AXIS2_PLACEMENT_3D ( 'NONE', #29, #245, #97 ) ;
#208 = DATE_AND_TIME ( #109, #227 ) ;
#209 = APPROVAL_DATE_TIME ( #134, #236 ) ;
#210 = DIRECTION ( 'NONE',  ( -0.000000000000000000, -0.000000000000000000, -1.000000000000000000 ) ) ;
#211 = CIRCLE ( 'NONE', #17, 1.500000000000000222 ) ;
#212 = DIRECTION ( 'NONE',  ( 0.000000000000000000, 0.000000000000000000, 1.000000000000000000 ) ) ;
#213 =( GEOMETRIC_REPRESENTATION_CONTEXT ( 3 ) GLOBAL_UNCERTAINTY_ASSIGNED_CONTEXT ( ( #124 ) ) GLOBAL_UNIT_ASSIGNED_CONTEXT ( ( #183, #198, #114 ) ) REPRESENTATION_CONTEXT ( 'NONE', 'WORKASPACE' ) );
#214 = APPLICATION_PROTOCOL_DEFINITION ( 'international standard', 'config_control_design', 1994, #175 ) ;
#215 = MECHANICAL_CONTEXT ( 'NONE', #133, 'mechanical' ) ;
#216 = EDGE_CURVE ( 'NONE', #148, #223, #188, .T. ) ;
#217 = DIRECTION ( 'NONE',  ( -0.000000000000000000, -0.000000000000000000, -1.000000000000000000 ) ) ;
#218 = PRODUCT_DEFINITION_FORMATION_WITH_SPECIFIED_SOURCE ( 'LIBOVOLNÝ', '', #248, .NOT_KNOWN. ) ;
#219 = PLANE ( 'NONE',  #43 ) ;
#220 = EDGE_LOOP ( 'NONE', ( #199, #83, #166, #119 ) ) ;
#221 = ORIENTED_EDGE ( 'NONE', *, *, #9, .T. ) ;
#222 = CARTESIAN_POINT ( 'NONE',  ( -3.000000000000000444, 0.000000000000000000, 3.000000000000000000 ) ) ;
#223 = VERTEX_POINT ( 'NONE', #82 ) ;
#224 = VECTOR ( 'NONE', #85, 1000.000000000000000 ) ;
#225 = CARTESIAN_POINT ( 'NONE',  ( -1.500000000000000222, 0.000000000000000000, 125.0000000000000000 ) ) ;
#226 = CARTESIAN_POINT ( 'NONE',  ( 0.000000000000000000, 0.000000000000000000, 3.000000000000000000 ) ) ;
#227 = LOCAL_TIME ( 16, 37, 50.00000000000000000, #153 ) ;
#228 = CALENDAR_DATE ( 2023, 13, 2 ) ;
#229 = DATE_TIME_ROLE ( 'classification_date' ) ;
#230 = AXIS2_PLACEMENT_3D ( 'NONE', #57, #50, #154 ) ;
#231 = PERSON_AND_ORGANIZATION ( #79, #146 ) ;
#232 = PERSON_AND_ORGANIZATION ( #79, #146 ) ;
#233 = CYLINDRICAL_SURFACE ( 'NONE', #38, 1.500000000000000222 ) ;
#234 = CLOSED_SHELL ( 'NONE', ( #62, #163, #197, #86, #206, #103, #77 ) ) ;
#235 = AXIS2_PLACEMENT_3D ( 'NONE', #63, #185, #12 ) ;
#236 = APPROVAL ( #190, 'NEURÈENÝ' ) ;
#237 = VERTEX_POINT ( 'NONE', #14 ) ;
#238 = ORIENTED_EDGE ( 'NONE', *, *, #74, .F. ) ;
#239 = AXIS2_PLACEMENT_3D ( 'NONE', #113, #5, #39 ) ;
#240 = CARTESIAN_POINT ( 'NONE',  ( 0.000000000000000000, 0.000000000000000000, 3.000000000000000000 ) ) ;
#241 = ORIENTED_EDGE ( 'NONE', *, *, #152, .F. ) ;
#242 = EDGE_LOOP ( 'NONE', ( #24, #140 ) ) ;
#243 = PRODUCT_DEFINITION ( 'NEZNÁMÝ', '', #218, #168 ) ;
#244 = CARTESIAN_POINT ( 'NONE',  ( 3.000000000000000444, 3.673940397442060361E-16, 0.000000000000000000 ) ) ;
#245 = DIRECTION ( 'NONE',  ( -0.000000000000000000, -0.000000000000000000, -1.000000000000000000 ) ) ;
#246 = AXIS2_PLACEMENT_3D ( 'NONE', #40, #212, #25 ) ;
#247 = EDGE_LOOP ( 'NONE', ( #201, #45, #196, #221 ) ) ;
#248 = PRODUCT ( '20dc', '20dc', '', ( #215 ) ) ;
#249 = CALENDAR_DATE ( 2023, 13, 2 ) ;
#250 = AXIS2_PLACEMENT_3D ( 'NONE', #255, #130, #205 ) ;
#251 = SECURITY_CLASSIFICATION ( '', '', #58 ) ;
#252 = COORDINATED_UNIVERSAL_TIME_OFFSET ( 1, 0, .AHEAD. ) ;
#253 = FACE_BOUND ( 'NONE', #142, .T. ) ;
#254 = PERSON_AND_ORGANIZATION ( #79, #146 ) ;
#255 = CARTESIAN_POINT ( 'NONE',  ( 0.000000000000000000, 0.000000000000000000, 125.0000000000000000 ) ) ;
ENDSEC;
END-ISO-10303-21;
