ISO-10303-21;
HEADER;
FILE_DESCRIPTION (( 'STEP AP203' ),
    '1' );
FILE_NAME ('fa0b.STEP',
    '2023-01-31T14:34:20',
    ( '' ),
    ( '' ),
    'SwSTEP 2.0',
    'SolidWorks 2019',
    '' );
FILE_SCHEMA (( 'CONFIG_CONTROL_DESIGN' ));
ENDSEC;

DATA;
#1 = DATE_AND_TIME ( #179, #195 ) ;
#2 = APPLICATION_PROTOCOL_DEFINITION ( 'international standard', 'config_control_design', 1994, #246 ) ;
#3 = CARTESIAN_POINT ( 'NONE',  ( 0.000000000000000000, 0.000000000000000000, 100.0000000000000000 ) ) ;
#4 = ORIENTED_EDGE ( 'NONE', *, *, #216, .F. ) ;
#5 = CIRCLE ( 'NONE', #130, 0.5000000000000000000 ) ;
#6 = CC_DESIGN_SECURITY_CLASSIFICATION ( #90, ( #103 ) ) ;
#7 = EDGE_LOOP ( 'NONE', ( #203, #126 ) ) ;
#8 = PERSON_AND_ORGANIZATION ( #64, #166 ) ;
#9 = ORIENTED_EDGE ( 'NONE', *, *, #50, .T. ) ;
#10 = CARTESIAN_POINT ( 'NONE',  ( 0.000000000000000000, 0.000000000000000000, 1.199999999999999956 ) ) ;
#11 = DIRECTION ( 'NONE',  ( -1.000000000000000000, 0.000000000000000000, 0.000000000000000000 ) ) ;
#12 = UNCERTAINTY_MEASURE_WITH_UNIT (LENGTH_MEASURE( 1.000000000000000082E-05 ), #79, 'distance_accuracy_value', 'NONE');
#13 = FACE_OUTER_BOUND ( 'NONE', #220, .T. ) ;
#14 = AXIS2_PLACEMENT_3D ( 'NONE', #3, #81, #57 ) ;
#15 = CARTESIAN_POINT ( 'NONE',  ( 1.250000000000000000, 1.530808498934191571E-16, 1.199999999999999956 ) ) ;
#16 = APPLICATION_CONTEXT ( 'configuration controlled 3d designs of mechanical parts and assemblies' ) ;
#17 = CIRCLE ( 'NONE', #239, 1.250000000000000000 ) ;
#18 = DIRECTION ( 'NONE',  ( 0.000000000000000000, 0.000000000000000000, 1.000000000000000000 ) ) ;
#19 = DIRECTION ( 'NONE',  ( 1.000000000000000000, 0.000000000000000000, -0.000000000000000000 ) ) ;
#20 = APPROVAL ( #198, 'NEURÈENÝ' ) ;
#21 = MECHANICAL_CONTEXT ( 'NONE', #246, 'mechanical' ) ;
#22 = APPROVAL_DATE_TIME ( #1, #127 ) ;
#23 = CC_DESIGN_PERSON_AND_ORGANIZATION_ASSIGNMENT ( #121, #125, ( #103 ) ) ;
#24 = ORIENTED_EDGE ( 'NONE', *, *, #63, .T. ) ;
#25 = EDGE_LOOP ( 'NONE', ( #222, #4, #169, #186 ) ) ;
#26 = LOCAL_TIME ( 15, 34, 20.00000000000000000, #235 ) ;
#27 = ORIENTED_EDGE ( 'NONE', *, *, #189, .T. ) ;
#28 = COORDINATED_UNIVERSAL_TIME_OFFSET ( 1, 0, .AHEAD. ) ;
#29 = ORIENTED_EDGE ( 'NONE', *, *, #50, .F. ) ;
#30 = ADVANCED_FACE ( 'NONE', ( #61 ), #85, .T. ) ;
#31 = ORIENTED_EDGE ( 'NONE', *, *, #241, .T. ) ;
#32 = APPROVAL_PERSON_ORGANIZATION ( #124, #20, #68 ) ;
#33 = CYLINDRICAL_SURFACE ( 'NONE', #139, 1.250000000000000000 ) ;
#34 = EDGE_CURVE ( 'NONE', #165, #170, #221, .T. ) ;
#35 = DIRECTION ( 'NONE',  ( 1.000000000000000000, 0.000000000000000000, -0.000000000000000000 ) ) ;
#36 = DIRECTION ( 'NONE',  ( 0.000000000000000000, 0.000000000000000000, 1.000000000000000000 ) ) ;
#37 = CARTESIAN_POINT ( 'NONE',  ( 0.000000000000000000, 0.000000000000000000, 0.000000000000000000 ) ) ;
#38 = CARTESIAN_POINT ( 'NONE',  ( 0.5000000000000000000, 6.123233995736766036E-17, 1.199999999999999956 ) ) ;
#39 = PERSON_AND_ORGANIZATION ( #64, #166 ) ;
#40 = PLANE ( 'NONE',  #14 ) ;
#41 = COORDINATED_UNIVERSAL_TIME_OFFSET ( 1, 0, .AHEAD. ) ;
#42 = APPLICATION_PROTOCOL_DEFINITION ( 'international standard', 'config_control_design', 1994, #16 ) ;
#43 = DIRECTION ( 'NONE',  ( -0.000000000000000000, -0.000000000000000000, -1.000000000000000000 ) ) ;
#44 = EDGE_LOOP ( 'NONE', ( #242, #31, #84, #245 ) ) ;
#45 = EDGE_LOOP ( 'NONE', ( #29, #129, #132, #24 ) ) ;
#46 = PERSON_AND_ORGANIZATION ( #64, #166 ) ;
#47 = DIRECTION ( 'NONE',  ( 1.000000000000000000, 0.000000000000000000, 0.000000000000000000 ) ) ;
#48 = DIRECTION ( 'NONE',  ( -0.000000000000000000, -0.000000000000000000, -1.000000000000000000 ) ) ;
#49 = DIRECTION ( 'NONE',  ( 0.000000000000000000, 0.000000000000000000, 1.000000000000000000 ) ) ;
#50 = EDGE_CURVE ( 'NONE', #112, #110, #147, .T. ) ;
#51 = AXIS2_PLACEMENT_3D ( 'NONE', #215, #43, #161 ) ;
#52 = VECTOR ( 'NONE', #167, 1000.000000000000000 ) ;
#53 = PERSON_AND_ORGANIZATION ( #64, #166 ) ;
#54 = AXIS2_PLACEMENT_3D ( 'NONE', #10, #146, #11 ) ;
#55 = FACE_OUTER_BOUND ( 'NONE', #151, .T. ) ;
#56 = CALENDAR_DATE ( 2023, 31, 1 ) ;
#57 = DIRECTION ( 'NONE',  ( 1.000000000000000000, 0.000000000000000000, -0.000000000000000000 ) ) ;
#58 = APPROVAL_DATE_TIME ( #199, #75 ) ;
#59 = PERSON_AND_ORGANIZATION_ROLE ( 'creator' ) ;
#60 = AXIS2_PLACEMENT_3D ( 'NONE', #253, #18, #101 ) ;
#61 = FACE_OUTER_BOUND ( 'NONE', #44, .T. ) ;
#62 = EDGE_LOOP ( 'NONE', ( #69, #107 ) ) ;
#63 = EDGE_CURVE ( 'NONE', #170, #110, #5, .T. ) ;
#64 = PERSON ( 'NEURÈENÝ', 'NEURÈENÝ', 'NEURÈENÝ', ('NEURÈENÝ'), ('NEURÈENÝ'), ('NEURÈENÝ') ) ;
#65 = VERTEX_POINT ( 'NONE', #15 ) ;
#66 = VECTOR ( 'NONE', #197, 1000.000000000000000 ) ;
#67 = AXIS2_PLACEMENT_3D ( 'NONE', #76, #193, #47 ) ;
#68 = APPROVAL_ROLE ( '' ) ;
#69 = ORIENTED_EDGE ( 'NONE', *, *, #216, .T. ) ;
#70 = CARTESIAN_POINT ( 'NONE',  ( 0.000000000000000000, 0.000000000000000000, 100.0000000000000000 ) ) ;
#71 = PRODUCT_DEFINITION ( 'NEZNÁMÝ', '', #103, #190 ) ;
#72 = CARTESIAN_POINT ( 'NONE',  ( 0.000000000000000000, 0.000000000000000000, 0.000000000000000000 ) ) ;
#73 = CARTESIAN_POINT ( 'NONE',  ( 0.000000000000000000, 0.000000000000000000, 0.000000000000000000 ) ) ;
#74 = DIRECTION ( 'NONE',  ( 1.000000000000000000, 0.000000000000000000, 0.000000000000000000 ) ) ;
#75 = APPROVAL ( #87, 'NEURÈENÝ' ) ;
#76 = CARTESIAN_POINT ( 'NONE',  ( 0.000000000000000000, 0.000000000000000000, 100.0000000000000000 ) ) ;
#77 = AXIS2_PLACEMENT_3D ( 'NONE', #229, #138, #119 ) ;
#78 = CARTESIAN_POINT ( 'NONE',  ( 1.250000000000000000, 1.530808498934191571E-16, 1.199999999999999956 ) ) ;
#79 =( LENGTH_UNIT ( ) NAMED_UNIT ( * ) SI_UNIT ( .MILLI., .METRE. ) );
#80 = PERSON_AND_ORGANIZATION_ROLE ( 'design_owner' ) ;
#81 = DIRECTION ( 'NONE',  ( 0.000000000000000000, 0.000000000000000000, 1.000000000000000000 ) ) ;
#82 = COORDINATED_UNIVERSAL_TIME_OFFSET ( 1, 0, .AHEAD. ) ;
#83 = PRODUCT ( 'fa0b', 'fa0b', '', ( #21 ) ) ;
#84 = ORIENTED_EDGE ( 'NONE', *, *, #120, .T. ) ;
#85 = CYLINDRICAL_SURFACE ( 'NONE', #54, 1.250000000000000000 ) ;
#86 = ADVANCED_FACE ( 'NONE', ( #174 ), #33, .T. ) ;
#87 = APPROVAL_STATUS ( 'not_yet_approved' ) ;
#88 = ORIENTED_EDGE ( 'NONE', *, *, #120, .F. ) ;
#89 = ORIENTED_EDGE ( 'NONE', *, *, #189, .F. ) ;
#90 = SECURITY_CLASSIFICATION ( '', '', #158 ) ;
#91 = ADVANCED_BREP_SHAPE_REPRESENTATION ( 'fa0b', ( #223, #60 ), #212 ) ;
#92 = CARTESIAN_POINT ( 'NONE',  ( -0.5000000000000000000, 0.000000000000000000, 100.0000000000000000 ) ) ;
#93 = CARTESIAN_POINT ( 'NONE',  ( -1.250000000000000000, 0.000000000000000000, 0.000000000000000000 ) ) ;
#94 = PRODUCT_RELATED_PRODUCT_CATEGORY ( 'detail', '', ( #83 ) ) ;
#95 = DIRECTION ( 'NONE',  ( 0.000000000000000000, 0.000000000000000000, 1.000000000000000000 ) ) ;
#96 = DIRECTION ( 'NONE',  ( -1.000000000000000000, 0.000000000000000000, 0.000000000000000000 ) ) ;
#97 = CALENDAR_DATE ( 2023, 31, 1 ) ;
#98 = DIRECTION ( 'NONE',  ( 1.000000000000000000, 0.000000000000000000, 0.000000000000000000 ) ) ;
#99 = APPROVAL_STATUS ( 'not_yet_approved' ) ;
#100 = LOCAL_TIME ( 15, 34, 20.00000000000000000, #228 ) ;
#101 = DIRECTION ( 'NONE',  ( 1.000000000000000000, 0.000000000000000000, 0.000000000000000000 ) ) ;
#102 = DIRECTION ( 'NONE',  ( 0.000000000000000000, 0.000000000000000000, 1.000000000000000000 ) ) ;
#103 = PRODUCT_DEFINITION_FORMATION_WITH_SPECIFIED_SOURCE ( 'LIBOVOLNÝ', '', #83, .NOT_KNOWN. ) ;
#104 = VECTOR ( 'NONE', #251, 1000.000000000000000 ) ;
#105 = EDGE_CURVE ( 'NONE', #165, #112, #249, .T. ) ;
#106 = DATE_AND_TIME ( #111, #108 ) ;
#107 = ORIENTED_EDGE ( 'NONE', *, *, #202, .T. ) ;
#108 = LOCAL_TIME ( 15, 34, 20.00000000000000000, #28 ) ;
#109 = PERSON_AND_ORGANIZATION_ROLE ( 'creator' ) ;
#110 = VERTEX_POINT ( 'NONE', #38 ) ;
#111 = CALENDAR_DATE ( 2023, 31, 1 ) ;
#112 = VERTEX_POINT ( 'NONE', #252 ) ;
#113 = CC_DESIGN_DATE_AND_TIME_ASSIGNMENT ( #163, #196, ( #90 ) ) ;
#114 = CARTESIAN_POINT ( 'NONE',  ( 0.000000000000000000, 0.000000000000000000, 1.199999999999999956 ) ) ;
#115 = CARTESIAN_POINT ( 'NONE',  ( 0.000000000000000000, 0.000000000000000000, 1.199999999999999956 ) ) ;
#116 = ADVANCED_FACE ( 'NONE', ( #13 ), #210, .F. ) ;
#117 = CIRCLE ( 'NONE', #213, 1.250000000000000000 ) ;
#118 = CARTESIAN_POINT ( 'NONE',  ( -0.5000000000000000000, 0.000000000000000000, 100.0000000000000000 ) ) ;
#119 = DIRECTION ( 'NONE',  ( 1.000000000000000000, 0.000000000000000000, 0.000000000000000000 ) ) ;
#120 = EDGE_CURVE ( 'NONE', #244, #134, #205, .T. ) ;
#121 = PERSON_AND_ORGANIZATION ( #64, #166 ) ;
#122 = LOCAL_TIME ( 15, 34, 20.00000000000000000, #82 ) ;
#123 = CARTESIAN_POINT ( 'NONE',  ( 0.000000000000000000, 0.000000000000000000, 1.199999999999999956 ) ) ;
#124 = PERSON_AND_ORGANIZATION ( #64, #166 ) ;
#125 = PERSON_AND_ORGANIZATION_ROLE ( 'design_supplier' ) ;
#126 = ORIENTED_EDGE ( 'NONE', *, *, #177, .F. ) ;
#127 = APPROVAL ( #99, 'NEURÈENÝ' ) ;
#128 = CALENDAR_DATE ( 2023, 31, 1 ) ;
#129 = ORIENTED_EDGE ( 'NONE', *, *, #105, .F. ) ;
#130 = AXIS2_PLACEMENT_3D ( 'NONE', #115, #137, #172 ) ;
#131 = CIRCLE ( 'NONE', #142, 1.250000000000000000 ) ;
#132 = ORIENTED_EDGE ( 'NONE', *, *, #34, .T. ) ;
#133 = DATE_AND_TIME ( #128, #122 ) ;
#134 = VERTEX_POINT ( 'NONE', #93 ) ;
#135 = FACE_BOUND ( 'NONE', #7, .T. ) ;
#136 = VECTOR ( 'NONE', #48, 1000.000000000000000 ) ;
#137 = DIRECTION ( 'NONE',  ( 0.000000000000000000, 0.000000000000000000, 1.000000000000000000 ) ) ;
#138 = DIRECTION ( 'NONE',  ( 0.000000000000000000, 0.000000000000000000, 1.000000000000000000 ) ) ;
#139 = AXIS2_PLACEMENT_3D ( 'NONE', #114, #247, #96 ) ;
#140 = DIRECTION ( 'NONE',  ( 1.000000000000000000, 0.000000000000000000, 0.000000000000000000 ) ) ;
#141 = CYLINDRICAL_SURFACE ( 'NONE', #51, 0.5000000000000000000 ) ;
#142 = AXIS2_PLACEMENT_3D ( 'NONE', #232, #155, #98 ) ;
#143 = CC_DESIGN_PERSON_AND_ORGANIZATION_ASSIGNMENT ( #237, #162, ( #90 ) ) ;
#144 = CARTESIAN_POINT ( 'NONE',  ( 0.000000000000000000, 0.000000000000000000, 100.0000000000000000 ) ) ;
#145 = PERSON_AND_ORGANIZATION ( #64, #166 ) ;
#146 = DIRECTION ( 'NONE',  ( -0.000000000000000000, -0.000000000000000000, -1.000000000000000000 ) ) ;
#147 = LINE ( 'NONE', #209, #136 ) ;
#148 = ORIENTED_EDGE ( 'NONE', *, *, #150, .F. ) ;
#149 = APPROVAL_DATE_TIME ( #106, #20 ) ;
#150 = EDGE_CURVE ( 'NONE', #134, #244, #117, .T. ) ;
#151 = EDGE_LOOP ( 'NONE', ( #89, #9, #206, #240 ) ) ;
#152 = DIRECTION ( 'NONE',  ( 0.000000000000000000, 0.000000000000000000, 1.000000000000000000 ) ) ;
#153 = CARTESIAN_POINT ( 'NONE',  ( 0.000000000000000000, 0.000000000000000000, 1.199999999999999956 ) ) ;
#154 = LINE ( 'NONE', #176, #104 ) ;
#155 = DIRECTION ( 'NONE',  ( 0.000000000000000000, 0.000000000000000000, 1.000000000000000000 ) ) ;
#156 = CC_DESIGN_DATE_AND_TIME_ASSIGNMENT ( #133, #168, ( #71 ) ) ;
#157 = DIRECTION ( 'NONE',  ( -0.000000000000000000, -0.000000000000000000, -1.000000000000000000 ) ) ;
#158 = SECURITY_CLASSIFICATION_LEVEL ( 'unclassified' ) ;
#159 = PRODUCT_DEFINITION_SHAPE ( 'NONE', 'NONE',  #71 ) ;
#160 = CC_DESIGN_PERSON_AND_ORGANIZATION_ASSIGNMENT ( #39, #59, ( #103 ) ) ;
#161 = DIRECTION ( 'NONE',  ( -1.000000000000000000, 0.000000000000000000, 0.000000000000000000 ) ) ;
#162 = PERSON_AND_ORGANIZATION_ROLE ( 'classification_officer' ) ;
#163 = DATE_AND_TIME ( #56, #26 ) ;
#164 = CC_DESIGN_PERSON_AND_ORGANIZATION_ASSIGNMENT ( #53, #80, ( #83 ) ) ;
#165 = VERTEX_POINT ( 'NONE', #118 ) ;
#166 = ORGANIZATION ( 'NEURÈENÝ', 'NEURÈENÝ', '' ) ;
#167 = DIRECTION ( 'NONE',  ( -0.000000000000000000, -0.000000000000000000, -1.000000000000000000 ) ) ;
#168 = DATE_TIME_ROLE ( 'creation_date' ) ;
#169 = ORIENTED_EDGE ( 'NONE', *, *, #173, .T. ) ;
#170 = VERTEX_POINT ( 'NONE', #178 ) ;
#171 = ORIENTED_EDGE ( 'NONE', *, *, #105, .T. ) ;
#172 = DIRECTION ( 'NONE',  ( 1.000000000000000000, 0.000000000000000000, 0.000000000000000000 ) ) ;
#173 = EDGE_CURVE ( 'NONE', #204, #134, #154, .T. ) ;
#174 = FACE_OUTER_BOUND ( 'NONE', #25, .T. ) ;
#175 = CC_DESIGN_APPROVAL ( #75, ( #103 ) ) ;
#176 = CARTESIAN_POINT ( 'NONE',  ( -1.250000000000000000, 0.000000000000000000, 1.199999999999999956 ) ) ;
#177 = EDGE_CURVE ( 'NONE', #110, #170, #243, .T. ) ;
#178 = CARTESIAN_POINT ( 'NONE',  ( -0.5000000000000000000, 0.000000000000000000, 1.199999999999999956 ) ) ;
#179 = CALENDAR_DATE ( 2023, 31, 1 ) ;
#180 =( NAMED_UNIT ( * ) SI_UNIT ( $, .STERADIAN. ) SOLID_ANGLE_UNIT ( ) );
#181 = CYLINDRICAL_SURFACE ( 'NONE', #250, 0.5000000000000000000 ) ;
#182 = APPROVAL_ROLE ( '' ) ;
#183 = SHAPE_DEFINITION_REPRESENTATION ( #159, #91 ) ;
#184 = EDGE_LOOP ( 'NONE', ( #171, #27 ) ) ;
#185 = APPROVAL_ROLE ( '' ) ;
#186 = ORIENTED_EDGE ( 'NONE', *, *, #150, .T. ) ;
#187 = CC_DESIGN_PERSON_AND_ORGANIZATION_ASSIGNMENT ( #46, #109, ( #71 ) ) ;
#188 = AXIS2_PLACEMENT_3D ( 'NONE', #72, #49, #35 ) ;
#189 = EDGE_CURVE ( 'NONE', #112, #165, #254, .T. ) ;
#190 = DESIGN_CONTEXT ( 'detailed design', #16, 'design' ) ;
#191 = AXIS2_PLACEMENT_3D ( 'NONE', #37, #227, #248 ) ;
#192 = CC_DESIGN_APPROVAL ( #127, ( #90 ) ) ;
#193 = DIRECTION ( 'NONE',  ( 0.000000000000000000, 0.000000000000000000, 1.000000000000000000 ) ) ;
#194 = FACE_OUTER_BOUND ( 'NONE', #45, .T. ) ;
#195 = LOCAL_TIME ( 15, 34, 20.00000000000000000, #41 ) ;
#196 = DATE_TIME_ROLE ( 'classification_date' ) ;
#197 = DIRECTION ( 'NONE',  ( -0.000000000000000000, -0.000000000000000000, -1.000000000000000000 ) ) ;
#198 = APPROVAL_STATUS ( 'not_yet_approved' ) ;
#199 = DATE_AND_TIME ( #97, #100 ) ;
#200 = APPROVAL_PERSON_ORGANIZATION ( #8, #75, #185 ) ;
#201 = CARTESIAN_POINT ( 'NONE',  ( 1.250000000000000000, 1.530808498934191571E-16, 0.000000000000000000 ) ) ;
#202 = EDGE_CURVE ( 'NONE', #65, #204, #17, .T. ) ;
#203 = ORIENTED_EDGE ( 'NONE', *, *, #63, .F. ) ;
#204 = VERTEX_POINT ( 'NONE', #214 ) ;
#205 = CIRCLE ( 'NONE', #191, 1.250000000000000000 ) ;
#206 = ORIENTED_EDGE ( 'NONE', *, *, #177, .T. ) ;
#207 = ADVANCED_FACE ( 'NONE', ( #135, #208 ), #219, .T. ) ;
#208 = FACE_OUTER_BOUND ( 'NONE', #62, .T. ) ;
#209 = CARTESIAN_POINT ( 'NONE',  ( 0.5000000000000000000, 6.123233995736766036E-17, 100.0000000000000000 ) ) ;
#210 = PLANE ( 'NONE',  #188 ) ;
#211 = ADVANCED_FACE ( 'NONE', ( #55 ), #181, .T. ) ;
#212 =( GEOMETRIC_REPRESENTATION_CONTEXT ( 3 ) GLOBAL_UNCERTAINTY_ASSIGNED_CONTEXT ( ( #12 ) ) GLOBAL_UNIT_ASSIGNED_CONTEXT ( ( #79, #217, #180 ) ) REPRESENTATION_CONTEXT ( 'NONE', 'WORKASPACE' ) );
#213 = AXIS2_PLACEMENT_3D ( 'NONE', #73, #152, #225 ) ;
#214 = CARTESIAN_POINT ( 'NONE',  ( -1.250000000000000000, 0.000000000000000000, 1.199999999999999956 ) ) ;
#215 = CARTESIAN_POINT ( 'NONE',  ( 0.000000000000000000, 0.000000000000000000, 100.0000000000000000 ) ) ;
#216 = EDGE_CURVE ( 'NONE', #204, #65, #131, .T. ) ;
#217 =( NAMED_UNIT ( * ) PLANE_ANGLE_UNIT ( ) SI_UNIT ( $, .RADIAN. ) );
#218 = AXIS2_PLACEMENT_3D ( 'NONE', #123, #102, #19 ) ;
#219 = PLANE ( 'NONE',  #218 ) ;
#220 = EDGE_LOOP ( 'NONE', ( #148, #88 ) ) ;
#221 = LINE ( 'NONE', #92, #52 ) ;
#222 = ORIENTED_EDGE ( 'NONE', *, *, #241, .F. ) ;
#223 = MANIFOLD_SOLID_BREP ( 'Pøidat vysunutím3', #238 ) ;
#224 = AXIS2_PLACEMENT_3D ( 'NONE', #70, #36, #74 ) ;
#225 = DIRECTION ( 'NONE',  ( 1.000000000000000000, 0.000000000000000000, 0.000000000000000000 ) ) ;
#226 = ADVANCED_FACE ( 'NONE', ( #230 ), #40, .T. ) ;
#227 = DIRECTION ( 'NONE',  ( 0.000000000000000000, 0.000000000000000000, 1.000000000000000000 ) ) ;
#228 = COORDINATED_UNIVERSAL_TIME_OFFSET ( 1, 0, .AHEAD. ) ;
#229 = CARTESIAN_POINT ( 'NONE',  ( 0.000000000000000000, 0.000000000000000000, 1.199999999999999956 ) ) ;
#230 = FACE_OUTER_BOUND ( 'NONE', #184, .T. ) ;
#231 = ADVANCED_FACE ( 'NONE', ( #194 ), #141, .T. ) ;
#232 = CARTESIAN_POINT ( 'NONE',  ( 0.000000000000000000, 0.000000000000000000, 1.199999999999999956 ) ) ;
#233 = CC_DESIGN_APPROVAL ( #20, ( #71 ) ) ;
#234 = LINE ( 'NONE', #78, #66 ) ;
#235 = COORDINATED_UNIVERSAL_TIME_OFFSET ( 1, 0, .AHEAD. ) ;
#236 = DIRECTION ( 'NONE',  ( -1.000000000000000000, 0.000000000000000000, 0.000000000000000000 ) ) ;
#237 = PERSON_AND_ORGANIZATION ( #64, #166 ) ;
#238 = CLOSED_SHELL ( 'NONE', ( #211, #30, #86, #207, #116, #231, #226 ) ) ;
#239 = AXIS2_PLACEMENT_3D ( 'NONE', #153, #95, #140 ) ;
#240 = ORIENTED_EDGE ( 'NONE', *, *, #34, .F. ) ;
#241 = EDGE_CURVE ( 'NONE', #65, #244, #234, .T. ) ;
#242 = ORIENTED_EDGE ( 'NONE', *, *, #202, .F. ) ;
#243 = CIRCLE ( 'NONE', #77, 0.5000000000000000000 ) ;
#244 = VERTEX_POINT ( 'NONE', #201 ) ;
#245 = ORIENTED_EDGE ( 'NONE', *, *, #173, .F. ) ;
#246 = APPLICATION_CONTEXT ( 'configuration controlled 3d designs of mechanical parts and assemblies' ) ;
#247 = DIRECTION ( 'NONE',  ( -0.000000000000000000, -0.000000000000000000, -1.000000000000000000 ) ) ;
#248 = DIRECTION ( 'NONE',  ( 1.000000000000000000, 0.000000000000000000, 0.000000000000000000 ) ) ;
#249 = CIRCLE ( 'NONE', #67, 0.5000000000000000000 ) ;
#250 = AXIS2_PLACEMENT_3D ( 'NONE', #144, #157, #236 ) ;
#251 = DIRECTION ( 'NONE',  ( -0.000000000000000000, -0.000000000000000000, -1.000000000000000000 ) ) ;
#252 = CARTESIAN_POINT ( 'NONE',  ( 0.5000000000000000000, 6.123233995736766036E-17, 100.0000000000000000 ) ) ;
#253 = CARTESIAN_POINT ( 'NONE',  ( 0.000000000000000000, 0.000000000000000000, 0.000000000000000000 ) ) ;
#254 = CIRCLE ( 'NONE', #224, 0.5000000000000000000 ) ;
#255 = APPROVAL_PERSON_ORGANIZATION ( #145, #127, #182 ) ;
ENDSEC;
END-ISO-10303-21;
