ISO-10303-21;
HEADER;
FILE_DESCRIPTION (( 'STEP AP203' ),
    '1' );
FILE_NAME ('0cf9.STEP',
    '2023-02-13T13:35:24',
    ( '' ),
    ( '' ),
    'SwSTEP 2.0',
    'SolidWorks 2019',
    '' );
FILE_SCHEMA (( 'CONFIG_CONTROL_DESIGN' ));
ENDSEC;

DATA;
#1 = VECTOR ( 'NONE', #94, 1000.000000000000000 ) ;
#2 = ADVANCED_BREP_SHAPE_REPRESENTATION ( '0cf9', ( #105, #47 ), #245 ) ;
#3 = ORIENTED_EDGE ( 'NONE', *, *, #65, .T. ) ;
#4 = DIRECTION ( 'NONE',  ( 0.000000000000000000, 0.000000000000000000, 1.000000000000000000 ) ) ;
#5 = PERSON_AND_ORGANIZATION ( #39, #108 ) ;
#6 = APPLICATION_CONTEXT ( 'configuration controlled 3d designs of mechanical parts and assemblies' ) ;
#7 = PLANE ( 'NONE',  #52 ) ;
#8 = FACE_OUTER_BOUND ( 'NONE', #51, .T. ) ;
#9 = DIRECTION ( 'NONE',  ( 0.000000000000000000, 0.000000000000000000, 1.000000000000000000 ) ) ;
#10 = AXIS2_PLACEMENT_3D ( 'NONE', #210, #167, #73 ) ;
#11 = ADVANCED_FACE ( 'NONE', ( #8 ), #45, .T. ) ;
#12 = LOCAL_TIME ( 14, 35, 24.00000000000000000, #126 ) ;
#13 = CARTESIAN_POINT ( 'NONE',  ( 0.000000000000000000, 0.000000000000000000, 100.0000000000000000 ) ) ;
#14 = ORIENTED_EDGE ( 'NONE', *, *, #143, .F. ) ;
#15 = LINE ( 'NONE', #152, #1 ) ;
#16 = ORIENTED_EDGE ( 'NONE', *, *, #65, .F. ) ;
#17 = UNCERTAINTY_MEASURE_WITH_UNIT (LENGTH_MEASURE( 1.000000000000000082E-05 ), #118, 'distance_accuracy_value', 'NONE');
#18 = CC_DESIGN_APPROVAL ( #233, ( #166 ) ) ;
#19 = AXIS2_PLACEMENT_3D ( 'NONE', #77, #122, #27 ) ;
#20 = ADVANCED_FACE ( 'NONE', ( #30, #106 ), #7, .T. ) ;
#21 = CALENDAR_DATE ( 2023, 13, 2 ) ;
#22 = PERSON_AND_ORGANIZATION_ROLE ( 'design_owner' ) ;
#23 = DATE_AND_TIME ( #185, #171 ) ;
#24 = EDGE_CURVE ( 'NONE', #183, #162, #79, .T. ) ;
#25 = DATE_AND_TIME ( #235, #158 ) ;
#26 = APPROVAL_ROLE ( '' ) ;
#27 = DIRECTION ( 'NONE',  ( -1.000000000000000000, 0.000000000000000000, 0.000000000000000000 ) ) ;
#28 = PERSON_AND_ORGANIZATION_ROLE ( 'creator' ) ;
#29 = ORIENTED_EDGE ( 'NONE', *, *, #24, .F. ) ;
#30 = FACE_BOUND ( 'NONE', #211, .T. ) ;
#31 = DIRECTION ( 'NONE',  ( 1.000000000000000000, 0.000000000000000000, 0.000000000000000000 ) ) ;
#32 = CARTESIAN_POINT ( 'NONE',  ( -3.750000000000000000, 0.000000000000000000, 100.0000000000000000 ) ) ;
#33 = CC_DESIGN_SECURITY_CLASSIFICATION ( #239, ( #144 ) ) ;
#34 = PERSON_AND_ORGANIZATION ( #39, #108 ) ;
#35 = CIRCLE ( 'NONE', #172, 3.750000000000000000 ) ;
#36 = DATE_TIME_ROLE ( 'classification_date' ) ;
#37 = ORIENTED_EDGE ( 'NONE', *, *, #229, .F. ) ;
#38 = CARTESIAN_POINT ( 'NONE',  ( 0.000000000000000000, 0.000000000000000000, 5.000000000000000000 ) ) ;
#39 = PERSON ( 'NEURÈENÝ', 'NEURÈENÝ', 'NEURÈENÝ', ('NEURÈENÝ'), ('NEURÈENÝ'), ('NEURÈENÝ') ) ;
#40 = CARTESIAN_POINT ( 'NONE',  ( -3.750000000000000000, 0.000000000000000000, 100.0000000000000000 ) ) ;
#41 = APPROVAL_ROLE ( '' ) ;
#42 = CYLINDRICAL_SURFACE ( 'NONE', #19, 6.000000000000000888 ) ;
#43 = CLOSED_SHELL ( 'NONE', ( #157, #72, #214, #20, #221, #213, #11 ) ) ;
#44 = APPROVAL_DATE_TIME ( #88, #233 ) ;
#45 = PLANE ( 'NONE',  #191 ) ;
#46 = CARTESIAN_POINT ( 'NONE',  ( 6.000000000000000888, 7.347880794884120722E-16, 5.000000000000000000 ) ) ;
#47 = AXIS2_PLACEMENT_3D ( 'NONE', #176, #249, #155 ) ;
#48 = PERSON_AND_ORGANIZATION_ROLE ( 'design_supplier' ) ;
#49 = AXIS2_PLACEMENT_3D ( 'NONE', #135, #116, #194 ) ;
#50 = EDGE_CURVE ( 'NONE', #231, #243, #192, .T. ) ;
#51 = EDGE_LOOP ( 'NONE', ( #220, #132 ) ) ;
#52 = AXIS2_PLACEMENT_3D ( 'NONE', #89, #113, #193 ) ;
#53 = DIRECTION ( 'NONE',  ( -1.000000000000000000, 0.000000000000000000, 0.000000000000000000 ) ) ;
#54 = EDGE_LOOP ( 'NONE', ( #240, #226, #204, #3 ) ) ;
#55 = CARTESIAN_POINT ( 'NONE',  ( 0.000000000000000000, 0.000000000000000000, 5.000000000000000000 ) ) ;
#56 = EDGE_LOOP ( 'NONE', ( #37, #66, #253, #209 ) ) ;
#57 = CIRCLE ( 'NONE', #165, 6.000000000000000888 ) ;
#58 =( NAMED_UNIT ( * ) SI_UNIT ( $, .STERADIAN. ) SOLID_ANGLE_UNIT ( ) );
#59 = APPLICATION_PROTOCOL_DEFINITION ( 'international standard', 'config_control_design', 1994, #196 ) ;
#60 = CARTESIAN_POINT ( 'NONE',  ( 6.000000000000000888, 7.347880794884120722E-16, 5.000000000000000000 ) ) ;
#61 = DIRECTION ( 'NONE',  ( -0.000000000000000000, -0.000000000000000000, -1.000000000000000000 ) ) ;
#62 = COORDINATED_UNIVERSAL_TIME_OFFSET ( 1, 0, .AHEAD. ) ;
#63 = ORIENTED_EDGE ( 'NONE', *, *, #93, .F. ) ;
#64 = CC_DESIGN_PERSON_AND_ORGANIZATION_ASSIGNMENT ( #5, #87, ( #239 ) ) ;
#65 = EDGE_CURVE ( 'NONE', #162, #183, #35, .T. ) ;
#66 = ORIENTED_EDGE ( 'NONE', *, *, #83, .F. ) ;
#67 = DIRECTION ( 'NONE',  ( -0.000000000000000000, -0.000000000000000000, -1.000000000000000000 ) ) ;
#68 = ORIENTED_EDGE ( 'NONE', *, *, #164, .F. ) ;
#69 = CC_DESIGN_PERSON_AND_ORGANIZATION_ASSIGNMENT ( #119, #22, ( #86 ) ) ;
#70 = CIRCLE ( 'NONE', #110, 6.000000000000000888 ) ;
#71 = CARTESIAN_POINT ( 'NONE',  ( -6.000000000000000888, 0.000000000000000000, 5.000000000000000000 ) ) ;
#72 = ADVANCED_FACE ( 'NONE', ( #230 ), #212, .T. ) ;
#73 = DIRECTION ( 'NONE',  ( 1.000000000000000000, 0.000000000000000000, 0.000000000000000000 ) ) ;
#74 = CARTESIAN_POINT ( 'NONE',  ( -6.000000000000000888, 0.000000000000000000, 0.000000000000000000 ) ) ;
#75 = DIRECTION ( 'NONE',  ( 0.000000000000000000, 0.000000000000000000, 1.000000000000000000 ) ) ;
#76 =( NAMED_UNIT ( * ) PLANE_ANGLE_UNIT ( ) SI_UNIT ( $, .RADIAN. ) );
#77 = CARTESIAN_POINT ( 'NONE',  ( 0.000000000000000000, 0.000000000000000000, 5.000000000000000000 ) ) ;
#78 = EDGE_LOOP ( 'NONE', ( #68, #149, #200, #14 ) ) ;
#79 = CIRCLE ( 'NONE', #10, 3.750000000000000000 ) ;
#80 = EDGE_LOOP ( 'NONE', ( #115, #134 ) ) ;
#81 = CARTESIAN_POINT ( 'NONE',  ( 0.000000000000000000, 0.000000000000000000, 100.0000000000000000 ) ) ;
#82 = CC_DESIGN_PERSON_AND_ORGANIZATION_ASSIGNMENT ( #178, #251, ( #144 ) ) ;
#83 = EDGE_CURVE ( 'NONE', #84, #136, #137, .T. ) ;
#84 = VERTEX_POINT ( 'NONE', #71 ) ;
#85 = LINE ( 'NONE', #32, #195 ) ;
#86 = PRODUCT ( '0cf9', '0cf9', '', ( #142 ) ) ;
#87 = PERSON_AND_ORGANIZATION_ROLE ( 'classification_officer' ) ;
#88 = DATE_AND_TIME ( #219, #225 ) ;
#89 = CARTESIAN_POINT ( 'NONE',  ( 0.000000000000000000, 0.000000000000000000, 5.000000000000000000 ) ) ;
#90 = CARTESIAN_POINT ( 'NONE',  ( 3.750000000000000000, 4.592425496802573972E-16, 5.000000000000000000 ) ) ;
#91 = DIRECTION ( 'NONE',  ( 0.000000000000000000, 0.000000000000000000, 1.000000000000000000 ) ) ;
#92 = ORIENTED_EDGE ( 'NONE', *, *, #120, .F. ) ;
#93 = EDGE_CURVE ( 'NONE', #84, #238, #15, .T. ) ;
#94 = DIRECTION ( 'NONE',  ( -0.000000000000000000, -0.000000000000000000, -1.000000000000000000 ) ) ;
#95 = DESIGN_CONTEXT ( 'detailed design', #6, 'design' ) ;
#96 = PERSON_AND_ORGANIZATION ( #39, #108 ) ;
#97 = CARTESIAN_POINT ( 'NONE',  ( 0.000000000000000000, 0.000000000000000000, 100.0000000000000000 ) ) ;
#98 = APPROVAL_DATE_TIME ( #25, #228 ) ;
#99 = FACE_OUTER_BOUND ( 'NONE', #223, .T. ) ;
#100 = CARTESIAN_POINT ( 'NONE',  ( 0.000000000000000000, 0.000000000000000000, 0.000000000000000000 ) ) ;
#101 = CIRCLE ( 'NONE', #139, 3.750000000000000000 ) ;
#102 = DIRECTION ( 'NONE',  ( 1.000000000000000000, 0.000000000000000000, -0.000000000000000000 ) ) ;
#103 = SECURITY_CLASSIFICATION_LEVEL ( 'unclassified' ) ;
#104 = COORDINATED_UNIVERSAL_TIME_OFFSET ( 1, 0, .AHEAD. ) ;
#105 = MANIFOLD_SOLID_BREP ( 'Pøidat vysunutím3', #43 ) ;
#106 = FACE_OUTER_BOUND ( 'NONE', #80, .T. ) ;
#107 = FACE_OUTER_BOUND ( 'NONE', #78, .T. ) ;
#108 = ORGANIZATION ( 'NEURÈENÝ', 'NEURÈENÝ', '' ) ;
#109 = CALENDAR_DATE ( 2023, 13, 2 ) ;
#110 = AXIS2_PLACEMENT_3D ( 'NONE', #169, #244, #133 ) ;
#111 = ORIENTED_EDGE ( 'NONE', *, *, #229, .T. ) ;
#112 = PRODUCT_DEFINITION_SHAPE ( 'NONE', 'NONE',  #166 ) ;
#113 = DIRECTION ( 'NONE',  ( 0.000000000000000000, 0.000000000000000000, 1.000000000000000000 ) ) ;
#114 = EDGE_CURVE ( 'NONE', #136, #84, #70, .T. ) ;
#115 = ORIENTED_EDGE ( 'NONE', *, *, #83, .T. ) ;
#116 = DIRECTION ( 'NONE',  ( 0.000000000000000000, 0.000000000000000000, 1.000000000000000000 ) ) ;
#117 = AXIS2_PLACEMENT_3D ( 'NONE', #38, #227, #53 ) ;
#118 =( LENGTH_UNIT ( ) NAMED_UNIT ( * ) SI_UNIT ( .MILLI., .METRE. ) );
#119 = PERSON_AND_ORGANIZATION ( #39, #108 ) ;
#120 = EDGE_CURVE ( 'NONE', #238, #146, #57, .T. ) ;
#121 = AXIS2_PLACEMENT_3D ( 'NONE', #97, #61, #218 ) ;
#122 = DIRECTION ( 'NONE',  ( -0.000000000000000000, -0.000000000000000000, -1.000000000000000000 ) ) ;
#123 = PERSON_AND_ORGANIZATION ( #39, #108 ) ;
#124 = SHAPE_DEFINITION_REPRESENTATION ( #112, #2 ) ;
#125 = DIRECTION ( 'NONE',  ( 0.000000000000000000, 0.000000000000000000, 1.000000000000000000 ) ) ;
#126 = COORDINATED_UNIVERSAL_TIME_OFFSET ( 1, 0, .AHEAD. ) ;
#127 = EDGE_LOOP ( 'NONE', ( #236, #111, #202, #63 ) ) ;
#128 = DIRECTION ( 'NONE',  ( -0.000000000000000000, -0.000000000000000000, -1.000000000000000000 ) ) ;
#129 = AXIS2_PLACEMENT_3D ( 'NONE', #13, #153, #232 ) ;
#130 = CARTESIAN_POINT ( 'NONE',  ( -3.750000000000000000, 0.000000000000000000, 5.000000000000000000 ) ) ;
#131 = PRODUCT_RELATED_PRODUCT_CATEGORY ( 'detail', '', ( #86 ) ) ;
#132 = ORIENTED_EDGE ( 'NONE', *, *, #164, .T. ) ;
#133 = DIRECTION ( 'NONE',  ( 1.000000000000000000, 0.000000000000000000, 0.000000000000000000 ) ) ;
#134 = ORIENTED_EDGE ( 'NONE', *, *, #114, .T. ) ;
#135 = CARTESIAN_POINT ( 'NONE',  ( 0.000000000000000000, 0.000000000000000000, 5.000000000000000000 ) ) ;
#136 = VERTEX_POINT ( 'NONE', #46 ) ;
#137 = CIRCLE ( 'NONE', #49, 6.000000000000000888 ) ;
#138 = COORDINATED_UNIVERSAL_TIME_OFFSET ( 1, 0, .AHEAD. ) ;
#139 = AXIS2_PLACEMENT_3D ( 'NONE', #203, #9, #31 ) ;
#140 = EDGE_CURVE ( 'NONE', #243, #183, #205, .T. ) ;
#141 = CARTESIAN_POINT ( 'NONE',  ( 3.750000000000000000, 4.592425496802573972E-16, 100.0000000000000000 ) ) ;
#142 = MECHANICAL_CONTEXT ( 'NONE', #196, 'mechanical' ) ;
#143 = EDGE_CURVE ( 'NONE', #231, #162, #85, .T. ) ;
#144 = PRODUCT_DEFINITION_FORMATION_WITH_SPECIFIED_SOURCE ( 'LIBOVOLNÝ', '', #86, .NOT_KNOWN. ) ;
#145 = PERSON_AND_ORGANIZATION ( #39, #108 ) ;
#146 = VERTEX_POINT ( 'NONE', #199 ) ;
#147 = DIRECTION ( 'NONE',  ( -0.000000000000000000, -0.000000000000000000, -1.000000000000000000 ) ) ;
#148 = CC_DESIGN_APPROVAL ( #170, ( #239 ) ) ;
#149 = ORIENTED_EDGE ( 'NONE', *, *, #140, .T. ) ;
#150 = CC_DESIGN_DATE_AND_TIME_ASSIGNMENT ( #23, #197, ( #166 ) ) ;
#151 = VECTOR ( 'NONE', #216, 1000.000000000000000 ) ;
#152 = CARTESIAN_POINT ( 'NONE',  ( -6.000000000000000888, 0.000000000000000000, 5.000000000000000000 ) ) ;
#153 = DIRECTION ( 'NONE',  ( 0.000000000000000000, 0.000000000000000000, 1.000000000000000000 ) ) ;
#154 = APPROVAL_PERSON_ORGANIZATION ( #34, #170, #206 ) ;
#155 = DIRECTION ( 'NONE',  ( 1.000000000000000000, 0.000000000000000000, 0.000000000000000000 ) ) ;
#156 = CC_DESIGN_PERSON_AND_ORGANIZATION_ASSIGNMENT ( #201, #48, ( #144 ) ) ;
#157 = ADVANCED_FACE ( 'NONE', ( #107 ), #163, .T. ) ;
#158 = LOCAL_TIME ( 14, 35, 24.00000000000000000, #248 ) ;
#159 = DIRECTION ( 'NONE',  ( 1.000000000000000000, 0.000000000000000000, -0.000000000000000000 ) ) ;
#160 = ORIENTED_EDGE ( 'NONE', *, *, #184, .F. ) ;
#161 = DIRECTION ( 'NONE',  ( 1.000000000000000000, 0.000000000000000000, 0.000000000000000000 ) ) ;
#162 = VERTEX_POINT ( 'NONE', #130 ) ;
#163 = CYLINDRICAL_SURFACE ( 'NONE', #241, 3.750000000000000000 ) ;
#164 = EDGE_CURVE ( 'NONE', #243, #231, #101, .T. ) ;
#165 = AXIS2_PLACEMENT_3D ( 'NONE', #224, #4, #237 ) ;
#166 = PRODUCT_DEFINITION ( 'NEZNÁMÝ', '', #144, #95 ) ;
#167 = DIRECTION ( 'NONE',  ( 0.000000000000000000, 0.000000000000000000, 1.000000000000000000 ) ) ;
#168 = CIRCLE ( 'NONE', #181, 6.000000000000000888 ) ;
#169 = CARTESIAN_POINT ( 'NONE',  ( 0.000000000000000000, 0.000000000000000000, 5.000000000000000000 ) ) ;
#170 = APPROVAL ( #190, 'NEURÈENÝ' ) ;
#171 = LOCAL_TIME ( 14, 35, 24.00000000000000000, #104 ) ;
#172 = AXIS2_PLACEMENT_3D ( 'NONE', #55, #91, #242 ) ;
#173 = DATE_AND_TIME ( #21, #188 ) ;
#174 = APPLICATION_PROTOCOL_DEFINITION ( 'international standard', 'config_control_design', 1994, #6 ) ;
#175 = APPROVAL_STATUS ( 'not_yet_approved' ) ;
#176 = CARTESIAN_POINT ( 'NONE',  ( 0.000000000000000000, 0.000000000000000000, 0.000000000000000000 ) ) ;
#177 = FACE_OUTER_BOUND ( 'NONE', #56, .T. ) ;
#178 = PERSON_AND_ORGANIZATION ( #39, #108 ) ;
#179 = CARTESIAN_POINT ( 'NONE',  ( 0.000000000000000000, 0.000000000000000000, 100.0000000000000000 ) ) ;
#180 = DIRECTION ( 'NONE',  ( 0.000000000000000000, 0.000000000000000000, 1.000000000000000000 ) ) ;
#181 = AXIS2_PLACEMENT_3D ( 'NONE', #100, #180, #161 ) ;
#182 = APPROVAL_DATE_TIME ( #222, #170 ) ;
#183 = VERTEX_POINT ( 'NONE', #90 ) ;
#184 = EDGE_CURVE ( 'NONE', #146, #238, #168, .T. ) ;
#185 = CALENDAR_DATE ( 2023, 13, 2 ) ;
#186 = CARTESIAN_POINT ( 'NONE',  ( 3.750000000000000000, 4.592425496802573972E-16, 100.0000000000000000 ) ) ;
#187 = CC_DESIGN_PERSON_AND_ORGANIZATION_ASSIGNMENT ( #123, #28, ( #166 ) ) ;
#188 = LOCAL_TIME ( 14, 35, 24.00000000000000000, #138 ) ;
#189 = DIRECTION ( 'NONE',  ( -1.000000000000000000, 0.000000000000000000, 0.000000000000000000 ) ) ;
#190 = APPROVAL_STATUS ( 'not_yet_approved' ) ;
#191 = AXIS2_PLACEMENT_3D ( 'NONE', #179, #125, #102 ) ;
#192 = CIRCLE ( 'NONE', #129, 3.750000000000000000 ) ;
#193 = DIRECTION ( 'NONE',  ( 1.000000000000000000, 0.000000000000000000, -0.000000000000000000 ) ) ;
#194 = DIRECTION ( 'NONE',  ( 1.000000000000000000, 0.000000000000000000, 0.000000000000000000 ) ) ;
#195 = VECTOR ( 'NONE', #128, 1000.000000000000000 ) ;
#196 = APPLICATION_CONTEXT ( 'configuration controlled 3d designs of mechanical parts and assemblies' ) ;
#197 = DATE_TIME_ROLE ( 'creation_date' ) ;
#198 = APPROVAL_STATUS ( 'not_yet_approved' ) ;
#199 = CARTESIAN_POINT ( 'NONE',  ( 6.000000000000000888, 7.347880794884120722E-16, 0.000000000000000000 ) ) ;
#200 = ORIENTED_EDGE ( 'NONE', *, *, #24, .T. ) ;
#201 = PERSON_AND_ORGANIZATION ( #39, #108 ) ;
#202 = ORIENTED_EDGE ( 'NONE', *, *, #184, .T. ) ;
#203 = CARTESIAN_POINT ( 'NONE',  ( 0.000000000000000000, 0.000000000000000000, 100.0000000000000000 ) ) ;
#204 = ORIENTED_EDGE ( 'NONE', *, *, #143, .T. ) ;
#205 = LINE ( 'NONE', #186, #215 ) ;
#206 = APPROVAL_ROLE ( '' ) ;
#207 = APPROVAL_PERSON_ORGANIZATION ( #96, #233, #26 ) ;
#208 = AXIS2_PLACEMENT_3D ( 'NONE', #247, #75, #159 ) ;
#209 = ORIENTED_EDGE ( 'NONE', *, *, #120, .T. ) ;
#210 = CARTESIAN_POINT ( 'NONE',  ( 0.000000000000000000, 0.000000000000000000, 5.000000000000000000 ) ) ;
#211 = EDGE_LOOP ( 'NONE', ( #16, #29 ) ) ;
#212 = CYLINDRICAL_SURFACE ( 'NONE', #117, 6.000000000000000888 ) ;
#213 = ADVANCED_FACE ( 'NONE', ( #254 ), #250, .T. ) ;
#214 = ADVANCED_FACE ( 'NONE', ( #177 ), #42, .T. ) ;
#215 = VECTOR ( 'NONE', #147, 1000.000000000000000 ) ;
#216 = DIRECTION ( 'NONE',  ( -0.000000000000000000, -0.000000000000000000, -1.000000000000000000 ) ) ;
#217 = CC_DESIGN_DATE_AND_TIME_ASSIGNMENT ( #173, #36, ( #239 ) ) ;
#218 = DIRECTION ( 'NONE',  ( -1.000000000000000000, 0.000000000000000000, 0.000000000000000000 ) ) ;
#219 = CALENDAR_DATE ( 2023, 13, 2 ) ;
#220 = ORIENTED_EDGE ( 'NONE', *, *, #50, .T. ) ;
#221 = ADVANCED_FACE ( 'NONE', ( #99 ), #252, .F. ) ;
#222 = DATE_AND_TIME ( #109, #12 ) ;
#223 = EDGE_LOOP ( 'NONE', ( #92, #160 ) ) ;
#224 = CARTESIAN_POINT ( 'NONE',  ( 0.000000000000000000, 0.000000000000000000, 0.000000000000000000 ) ) ;
#225 = LOCAL_TIME ( 14, 35, 24.00000000000000000, #62 ) ;
#226 = ORIENTED_EDGE ( 'NONE', *, *, #50, .F. ) ;
#227 = DIRECTION ( 'NONE',  ( -0.000000000000000000, -0.000000000000000000, -1.000000000000000000 ) ) ;
#228 = APPROVAL ( #175, 'NEURÈENÝ' ) ;
#229 = EDGE_CURVE ( 'NONE', #136, #146, #234, .T. ) ;
#230 = FACE_OUTER_BOUND ( 'NONE', #127, .T. ) ;
#231 = VERTEX_POINT ( 'NONE', #40 ) ;
#232 = DIRECTION ( 'NONE',  ( 1.000000000000000000, 0.000000000000000000, 0.000000000000000000 ) ) ;
#233 = APPROVAL ( #198, 'NEURÈENÝ' ) ;
#234 = LINE ( 'NONE', #60, #151 ) ;
#235 = CALENDAR_DATE ( 2023, 13, 2 ) ;
#236 = ORIENTED_EDGE ( 'NONE', *, *, #114, .F. ) ;
#237 = DIRECTION ( 'NONE',  ( 1.000000000000000000, 0.000000000000000000, 0.000000000000000000 ) ) ;
#238 = VERTEX_POINT ( 'NONE', #74 ) ;
#239 = SECURITY_CLASSIFICATION ( '', '', #103 ) ;
#240 = ORIENTED_EDGE ( 'NONE', *, *, #140, .F. ) ;
#241 = AXIS2_PLACEMENT_3D ( 'NONE', #81, #67, #189 ) ;
#242 = DIRECTION ( 'NONE',  ( 1.000000000000000000, 0.000000000000000000, 0.000000000000000000 ) ) ;
#243 = VERTEX_POINT ( 'NONE', #141 ) ;
#244 = DIRECTION ( 'NONE',  ( 0.000000000000000000, 0.000000000000000000, 1.000000000000000000 ) ) ;
#245 =( GEOMETRIC_REPRESENTATION_CONTEXT ( 3 ) GLOBAL_UNCERTAINTY_ASSIGNED_CONTEXT ( ( #17 ) ) GLOBAL_UNIT_ASSIGNED_CONTEXT ( ( #118, #76, #58 ) ) REPRESENTATION_CONTEXT ( 'NONE', 'WORKASPACE' ) );
#246 = CC_DESIGN_APPROVAL ( #228, ( #144 ) ) ;
#247 = CARTESIAN_POINT ( 'NONE',  ( 0.000000000000000000, 0.000000000000000000, 0.000000000000000000 ) ) ;
#248 = COORDINATED_UNIVERSAL_TIME_OFFSET ( 1, 0, .AHEAD. ) ;
#249 = DIRECTION ( 'NONE',  ( 0.000000000000000000, 0.000000000000000000, 1.000000000000000000 ) ) ;
#250 = CYLINDRICAL_SURFACE ( 'NONE', #121, 3.750000000000000000 ) ;
#251 = PERSON_AND_ORGANIZATION_ROLE ( 'creator' ) ;
#252 = PLANE ( 'NONE',  #208 ) ;
#253 = ORIENTED_EDGE ( 'NONE', *, *, #93, .T. ) ;
#254 = FACE_OUTER_BOUND ( 'NONE', #54, .T. ) ;
#255 = APPROVAL_PERSON_ORGANIZATION ( #145, #228, #41 ) ;
ENDSEC;
END-ISO-10303-21;
