ISO-10303-21;
HEADER;
FILE_DESCRIPTION (( 'STEP AP203' ),
    '1' );
FILE_NAME ('ec61.STEP',
    '2023-02-13T14:33:27',
    ( '' ),
    ( '' ),
    'SwSTEP 2.0',
    'SolidWorks 2019',
    '' );
FILE_SCHEMA (( 'CONFIG_CONTROL_DESIGN' ));
ENDSEC;

DATA;
#1 = PLANE ( 'NONE',  #189 ) ;
#2 = VERTEX_POINT ( 'NONE', #242 ) ;
#3 = MECHANICAL_CONTEXT ( 'NONE', #7, 'mechanical' ) ;
#4 = DIRECTION ( 'NONE',  ( 0.000000000000000000, 0.000000000000000000, 1.000000000000000000 ) ) ;
#5 = DIRECTION ( 'NONE',  ( -0.000000000000000000, -0.000000000000000000, -1.000000000000000000 ) ) ;
#6 = ORIENTED_EDGE ( 'NONE', *, *, #198, .T. ) ;
#7 = APPLICATION_CONTEXT ( 'configuration controlled 3d designs of mechanical parts and assemblies' ) ;
#8 = ORIENTED_EDGE ( 'NONE', *, *, #94, .T. ) ;
#9 = CARTESIAN_POINT ( 'NONE',  ( 0.000000000000000000, 0.000000000000000000, 3.000000000000000000 ) ) ;
#10 = CALENDAR_DATE ( 2023, 13, 2 ) ;
#11 = EDGE_LOOP ( 'NONE', ( #161, #142 ) ) ;
#12 = CARTESIAN_POINT ( 'NONE',  ( 2.750000000000000000, 3.367778697655221012E-16, 315.0000000000000000 ) ) ;
#13 = VERTEX_POINT ( 'NONE', #25 ) ;
#14 = EDGE_CURVE ( 'NONE', #216, #20, #59, .T. ) ;
#15 = AXIS2_PLACEMENT_3D ( 'NONE', #16, #66, #190 ) ;
#16 = CARTESIAN_POINT ( 'NONE',  ( 0.000000000000000000, 0.000000000000000000, 0.000000000000000000 ) ) ;
#17 = DIRECTION ( 'NONE',  ( -0.000000000000000000, -0.000000000000000000, -1.000000000000000000 ) ) ;
#18 = ORIENTED_EDGE ( 'NONE', *, *, #198, .F. ) ;
#19 = CC_DESIGN_PERSON_AND_ORGANIZATION_ASSIGNMENT ( #116, #199, ( #108 ) ) ;
#20 = VERTEX_POINT ( 'NONE', #38 ) ;
#21 = AXIS2_PLACEMENT_3D ( 'NONE', #141, #17, #232 ) ;
#22 = APPLICATION_PROTOCOL_DEFINITION ( 'international standard', 'config_control_design', 1994, #7 ) ;
#23 = FACE_OUTER_BOUND ( 'NONE', #197, .T. ) ;
#24 = APPLICATION_PROTOCOL_DEFINITION ( 'international standard', 'config_control_design', 1994, #159 ) ;
#25 = CARTESIAN_POINT ( 'NONE',  ( -2.750000000000000000, 0.000000000000000000, 315.0000000000000000 ) ) ;
#26 = AXIS2_PLACEMENT_3D ( 'NONE', #209, #48, #107 ) ;
#27 = CALENDAR_DATE ( 2023, 13, 2 ) ;
#28 = DIRECTION ( 'NONE',  ( -0.000000000000000000, -0.000000000000000000, -1.000000000000000000 ) ) ;
#29 = CARTESIAN_POINT ( 'NONE',  ( 0.000000000000000000, 0.000000000000000000, 315.0000000000000000 ) ) ;
#30 = APPROVAL_STATUS ( 'not_yet_approved' ) ;
#31 = CIRCLE ( 'NONE', #177, 2.750000000000000000 ) ;
#32 = AXIS2_PLACEMENT_3D ( 'NONE', #171, #247, #149 ) ;
#33 = PERSON_AND_ORGANIZATION ( #236, #208 ) ;
#34 = EDGE_CURVE ( 'NONE', #13, #216, #31, .T. ) ;
#35 = CIRCLE ( 'NONE', #153, 2.750000000000000000 ) ;
#36 = VERTEX_POINT ( 'NONE', #39 ) ;
#37 = ADVANCED_FACE ( 'NONE', ( #181 ), #1, .F. ) ;
#38 = CARTESIAN_POINT ( 'NONE',  ( 2.750000000000000000, 3.367778697655221012E-16, 3.000000000000000000 ) ) ;
#39 = CARTESIAN_POINT ( 'NONE',  ( -2.750000000000000000, 0.000000000000000000, 3.000000000000000000 ) ) ;
#40 = ORIENTED_EDGE ( 'NONE', *, *, #91, .T. ) ;
#41 = CYLINDRICAL_SURFACE ( 'NONE', #175, 2.750000000000000000 ) ;
#42 = PRODUCT_DEFINITION_FORMATION_WITH_SPECIFIED_SOURCE ( 'LIBOVOLNÝ', '', #108, .NOT_KNOWN. ) ;
#43 = PERSON_AND_ORGANIZATION_ROLE ( 'creator' ) ;
#44 = CALENDAR_DATE ( 2023, 13, 2 ) ;
#45 = PERSON_AND_ORGANIZATION_ROLE ( 'design_supplier' ) ;
#46 = DIRECTION ( 'NONE',  ( 0.000000000000000000, 0.000000000000000000, 1.000000000000000000 ) ) ;
#47 = PRODUCT_RELATED_PRODUCT_CATEGORY ( 'detail', '', ( #108 ) ) ;
#48 = DIRECTION ( 'NONE',  ( 0.000000000000000000, 0.000000000000000000, 1.000000000000000000 ) ) ;
#49 =( GEOMETRIC_REPRESENTATION_CONTEXT ( 3 ) GLOBAL_UNCERTAINTY_ASSIGNED_CONTEXT ( ( #188 ) ) GLOBAL_UNIT_ASSIGNED_CONTEXT ( ( #96, #213, #193 ) ) REPRESENTATION_CONTEXT ( 'NONE', 'WORKASPACE' ) );
#50 = DIRECTION ( 'NONE',  ( -0.000000000000000000, -0.000000000000000000, -1.000000000000000000 ) ) ;
#51 = DIRECTION ( 'NONE',  ( 1.000000000000000000, 0.000000000000000000, -0.000000000000000000 ) ) ;
#52 = CC_DESIGN_APPROVAL ( #110, ( #229 ) ) ;
#53 = EDGE_LOOP ( 'NONE', ( #88, #72 ) ) ;
#54 = CYLINDRICAL_SURFACE ( 'NONE', #131, 5.000000000000000000 ) ;
#55 = VERTEX_POINT ( 'NONE', #114 ) ;
#56 = APPROVAL_STATUS ( 'not_yet_approved' ) ;
#57 = FACE_OUTER_BOUND ( 'NONE', #98, .T. ) ;
#58 = CALENDAR_DATE ( 2023, 13, 2 ) ;
#59 = LINE ( 'NONE', #194, #137 ) ;
#60 = PERSON_AND_ORGANIZATION ( #236, #208 ) ;
#61 = DIRECTION ( 'NONE',  ( 0.000000000000000000, 0.000000000000000000, 1.000000000000000000 ) ) ;
#62 = DATE_AND_TIME ( #126, #97 ) ;
#63 = APPROVAL_DATE_TIME ( #225, #110 ) ;
#64 = ADVANCED_FACE ( 'NONE', ( #23 ), #237, .T. ) ;
#65 = PERSON_AND_ORGANIZATION ( #236, #208 ) ;
#66 = DIRECTION ( 'NONE',  ( 0.000000000000000000, 0.000000000000000000, 1.000000000000000000 ) ) ;
#67 = PLANE ( 'NONE',  #217 ) ;
#68 = CARTESIAN_POINT ( 'NONE',  ( 0.000000000000000000, 0.000000000000000000, 3.000000000000000000 ) ) ;
#69 = VECTOR ( 'NONE', #128, 1000.000000000000000 ) ;
#70 = ADVANCED_FACE ( 'NONE', ( #57 ), #41, .T. ) ;
#71 = CARTESIAN_POINT ( 'NONE',  ( 0.000000000000000000, 0.000000000000000000, 3.000000000000000000 ) ) ;
#72 = ORIENTED_EDGE ( 'NONE', *, *, #202, .T. ) ;
#73 = EDGE_CURVE ( 'NONE', #20, #36, #195, .T. ) ;
#74 = LOCAL_TIME ( 15, 33, 27.00000000000000000, #124 ) ;
#75 = ADVANCED_BREP_SHAPE_REPRESENTATION ( 'ec61', ( #115, #178 ), #49 ) ;
#76 = ORIENTED_EDGE ( 'NONE', *, *, #73, .T. ) ;
#77 = PERSON_AND_ORGANIZATION ( #236, #208 ) ;
#78 = DIRECTION ( 'NONE',  ( 0.000000000000000000, 0.000000000000000000, 1.000000000000000000 ) ) ;
#79 = CIRCLE ( 'NONE', #15, 5.000000000000000000 ) ;
#80 = ORIENTED_EDGE ( 'NONE', *, *, #94, .F. ) ;
#81 = DIRECTION ( 'NONE',  ( 0.000000000000000000, 0.000000000000000000, 1.000000000000000000 ) ) ;
#82 = DATE_AND_TIME ( #27, #167 ) ;
#83 = FACE_OUTER_BOUND ( 'NONE', #92, .T. ) ;
#84 = PERSON_AND_ORGANIZATION ( #236, #208 ) ;
#85 = CARTESIAN_POINT ( 'NONE',  ( -5.000000000000000000, 0.000000000000000000, 3.000000000000000000 ) ) ;
#86 = EDGE_CURVE ( 'NONE', #36, #20, #102, .T. ) ;
#87 = APPROVAL_ROLE ( '' ) ;
#88 = ORIENTED_EDGE ( 'NONE', *, *, #207, .T. ) ;
#89 = ORIENTED_EDGE ( 'NONE', *, *, #156, .T. ) ;
#90 = APPROVAL_PERSON_ORGANIZATION ( #77, #180, #184 ) ;
#91 = EDGE_CURVE ( 'NONE', #2, #95, #249, .T. ) ;
#92 = EDGE_LOOP ( 'NONE', ( #200, #212, #89, #93 ) ) ;
#93 = ORIENTED_EDGE ( 'NONE', *, *, #86, .T. ) ;
#94 = EDGE_CURVE ( 'NONE', #216, #13, #35, .T. ) ;
#95 = VERTEX_POINT ( 'NONE', #146 ) ;
#96 =( LENGTH_UNIT ( ) NAMED_UNIT ( * ) SI_UNIT ( .MILLI., .METRE. ) );
#97 = LOCAL_TIME ( 15, 33, 27.00000000000000000, #173 ) ;
#98 = EDGE_LOOP ( 'NONE', ( #80, #182, #76, #99 ) ) ;
#99 = ORIENTED_EDGE ( 'NONE', *, *, #156, .F. ) ;
#100 = ORIENTED_EDGE ( 'NONE', *, *, #91, .F. ) ;
#101 = EDGE_CURVE ( 'NONE', #55, #2, #104, .T. ) ;
#102 = CIRCLE ( 'NONE', #165, 2.750000000000000000 ) ;
#103 = APPROVAL_DATE_TIME ( #82, #235 ) ;
#104 = LINE ( 'NONE', #186, #191 ) ;
#105 = CLOSED_SHELL ( 'NONE', ( #70, #224, #241, #174, #37, #119, #64 ) ) ;
#106 = DIRECTION ( 'NONE',  ( -1.000000000000000000, 0.000000000000000000, 0.000000000000000000 ) ) ;
#107 = DIRECTION ( 'NONE',  ( 1.000000000000000000, 0.000000000000000000, 0.000000000000000000 ) ) ;
#108 = PRODUCT ( 'ec61', 'ec61', '', ( #3 ) ) ;
#109 = VERTEX_POINT ( 'NONE', #85 ) ;
#110 = APPROVAL ( #30, 'NEURÈENÝ' ) ;
#111 = DIRECTION ( 'NONE',  ( 1.000000000000000000, 0.000000000000000000, -0.000000000000000000 ) ) ;
#112 = VECTOR ( 'NONE', #50, 1000.000000000000000 ) ;
#113 = DIRECTION ( 'NONE',  ( 1.000000000000000000, 0.000000000000000000, 0.000000000000000000 ) ) ;
#114 = CARTESIAN_POINT ( 'NONE',  ( 5.000000000000000000, 6.123233995736766282E-16, 3.000000000000000000 ) ) ;
#115 = MANIFOLD_SOLID_BREP ( 'Pøidat vysunutím3', #105 ) ;
#116 = PERSON_AND_ORGANIZATION ( #236, #208 ) ;
#117 = CARTESIAN_POINT ( 'NONE',  ( 0.000000000000000000, 0.000000000000000000, 315.0000000000000000 ) ) ;
#118 = CARTESIAN_POINT ( 'NONE',  ( -5.000000000000000000, 0.000000000000000000, 3.000000000000000000 ) ) ;
#119 = ADVANCED_FACE ( 'NONE', ( #83 ), #125, .T. ) ;
#120 = CARTESIAN_POINT ( 'NONE',  ( 0.000000000000000000, 0.000000000000000000, 315.0000000000000000 ) ) ;
#121 = ORIENTED_EDGE ( 'NONE', *, *, #219, .F. ) ;
#122 = DATE_AND_TIME ( #10, #74 ) ;
#123 = CARTESIAN_POINT ( 'NONE',  ( 0.000000000000000000, 0.000000000000000000, 3.000000000000000000 ) ) ;
#124 = COORDINATED_UNIVERSAL_TIME_OFFSET ( 1, 0, .AHEAD. ) ;
#125 = CYLINDRICAL_SURFACE ( 'NONE', #32, 2.750000000000000000 ) ;
#126 = CALENDAR_DATE ( 2023, 13, 2 ) ;
#127 = DIRECTION ( 'NONE',  ( 0.000000000000000000, 0.000000000000000000, 1.000000000000000000 ) ) ;
#128 = DIRECTION ( 'NONE',  ( -0.000000000000000000, -0.000000000000000000, -1.000000000000000000 ) ) ;
#129 = CC_DESIGN_PERSON_AND_ORGANIZATION_ASSIGNMENT ( #65, #43, ( #192 ) ) ;
#130 = LOCAL_TIME ( 15, 33, 27.00000000000000000, #143 ) ;
#131 = AXIS2_PLACEMENT_3D ( 'NONE', #71, #135, #163 ) ;
#132 = FACE_OUTER_BOUND ( 'NONE', #53, .T. ) ;
#133 = FACE_BOUND ( 'NONE', #11, .T. ) ;
#134 = CC_DESIGN_DATE_AND_TIME_ASSIGNMENT ( #62, #220, ( #229 ) ) ;
#135 = DIRECTION ( 'NONE',  ( -0.000000000000000000, -0.000000000000000000, -1.000000000000000000 ) ) ;
#136 = CC_DESIGN_SECURITY_CLASSIFICATION ( #229, ( #42 ) ) ;
#137 = VECTOR ( 'NONE', #5, 1000.000000000000000 ) ;
#138 = EDGE_LOOP ( 'NONE', ( #210, #158, #40, #121 ) ) ;
#139 = FACE_OUTER_BOUND ( 'NONE', #176, .T. ) ;
#140 = AXIS2_PLACEMENT_3D ( 'NONE', #223, #203, #166 ) ;
#141 = CARTESIAN_POINT ( 'NONE',  ( 0.000000000000000000, 0.000000000000000000, 3.000000000000000000 ) ) ;
#142 = ORIENTED_EDGE ( 'NONE', *, *, #73, .F. ) ;
#143 = COORDINATED_UNIVERSAL_TIME_OFFSET ( 1, 0, .AHEAD. ) ;
#144 = CC_DESIGN_APPROVAL ( #235, ( #42 ) ) ;
#145 = PERSON_AND_ORGANIZATION_ROLE ( 'classification_officer' ) ;
#146 = CARTESIAN_POINT ( 'NONE',  ( -5.000000000000000000, 0.000000000000000000, 0.000000000000000000 ) ) ;
#147 = SECURITY_CLASSIFICATION_LEVEL ( 'unclassified' ) ;
#148 = SHAPE_DEFINITION_REPRESENTATION ( #221, #75 ) ;
#149 = DIRECTION ( 'NONE',  ( -1.000000000000000000, 0.000000000000000000, 0.000000000000000000 ) ) ;
#150 = APPROVAL_PERSON_ORGANIZATION ( #222, #110, #87 ) ;
#151 = APPROVAL_STATUS ( 'not_yet_approved' ) ;
#152 = DIRECTION ( 'NONE',  ( 1.000000000000000000, 0.000000000000000000, 0.000000000000000000 ) ) ;
#153 = AXIS2_PLACEMENT_3D ( 'NONE', #29, #61, #244 ) ;
#154 = ORIENTED_EDGE ( 'NONE', *, *, #207, .F. ) ;
#155 = CYLINDRICAL_SURFACE ( 'NONE', #21, 5.000000000000000000 ) ;
#156 = EDGE_CURVE ( 'NONE', #13, #36, #230, .T. ) ;
#157 = CARTESIAN_POINT ( 'NONE',  ( 0.000000000000000000, 0.000000000000000000, 0.000000000000000000 ) ) ;
#158 = ORIENTED_EDGE ( 'NONE', *, *, #101, .T. ) ;
#159 = APPLICATION_CONTEXT ( 'configuration controlled 3d designs of mechanical parts and assemblies' ) ;
#160 = DIRECTION ( 'NONE',  ( 0.000000000000000000, 0.000000000000000000, 1.000000000000000000 ) ) ;
#161 = ORIENTED_EDGE ( 'NONE', *, *, #86, .F. ) ;
#162 = CC_DESIGN_PERSON_AND_ORGANIZATION_ASSIGNMENT ( #33, #45, ( #42 ) ) ;
#163 = DIRECTION ( 'NONE',  ( -1.000000000000000000, 0.000000000000000000, 0.000000000000000000 ) ) ;
#164 = DIRECTION ( 'NONE',  ( 1.000000000000000000, 0.000000000000000000, -0.000000000000000000 ) ) ;
#165 = AXIS2_PLACEMENT_3D ( 'NONE', #123, #81, #187 ) ;
#166 = DIRECTION ( 'NONE',  ( 1.000000000000000000, 0.000000000000000000, 0.000000000000000000 ) ) ;
#167 = LOCAL_TIME ( 15, 33, 27.00000000000000000, #206 ) ;
#168 = DESIGN_CONTEXT ( 'detailed design', #159, 'design' ) ;
#169 = DATE_TIME_ROLE ( 'creation_date' ) ;
#170 = CC_DESIGN_PERSON_AND_ORGANIZATION_ASSIGNMENT ( #84, #145, ( #229 ) ) ;
#171 = CARTESIAN_POINT ( 'NONE',  ( 0.000000000000000000, 0.000000000000000000, 315.0000000000000000 ) ) ;
#172 = AXIS2_PLACEMENT_3D ( 'NONE', #9, #127, #152 ) ;
#173 = COORDINATED_UNIVERSAL_TIME_OFFSET ( 1, 0, .AHEAD. ) ;
#174 = ADVANCED_FACE ( 'NONE', ( #133, #132 ), #67, .T. ) ;
#175 = AXIS2_PLACEMENT_3D ( 'NONE', #120, #28, #106 ) ;
#176 = EDGE_LOOP ( 'NONE', ( #240, #154, #238, #6 ) ) ;
#177 = AXIS2_PLACEMENT_3D ( 'NONE', #234, #4, #113 ) ;
#178 = AXIS2_PLACEMENT_3D ( 'NONE', #215, #233, #239 ) ;
#179 = CARTESIAN_POINT ( 'NONE',  ( 0.000000000000000000, 0.000000000000000000, 3.000000000000000000 ) ) ;
#180 = APPROVAL ( #56, 'NEURÈENÝ' ) ;
#181 = FACE_OUTER_BOUND ( 'NONE', #250, .T. ) ;
#182 = ORIENTED_EDGE ( 'NONE', *, *, #14, .T. ) ;
#183 = CC_DESIGN_PERSON_AND_ORGANIZATION_ASSIGNMENT ( #60, #226, ( #42 ) ) ;
#184 = APPROVAL_ROLE ( '' ) ;
#185 = DIRECTION ( 'NONE',  ( -0.000000000000000000, -0.000000000000000000, -1.000000000000000000 ) ) ;
#186 = CARTESIAN_POINT ( 'NONE',  ( 5.000000000000000000, 6.123233995736766282E-16, 3.000000000000000000 ) ) ;
#187 = DIRECTION ( 'NONE',  ( 1.000000000000000000, 0.000000000000000000, 0.000000000000000000 ) ) ;
#188 = UNCERTAINTY_MEASURE_WITH_UNIT (LENGTH_MEASURE( 1.000000000000000082E-05 ), #96, 'distance_accuracy_value', 'NONE');
#189 = AXIS2_PLACEMENT_3D ( 'NONE', #157, #160, #51 ) ;
#190 = DIRECTION ( 'NONE',  ( 1.000000000000000000, 0.000000000000000000, 0.000000000000000000 ) ) ;
#191 = VECTOR ( 'NONE', #185, 1000.000000000000000 ) ;
#192 = PRODUCT_DEFINITION ( 'NEZNÁMÝ', '', #42, #168 ) ;
#193 =( NAMED_UNIT ( * ) SI_UNIT ( $, .STERADIAN. ) SOLID_ANGLE_UNIT ( ) );
#194 = CARTESIAN_POINT ( 'NONE',  ( 2.750000000000000000, 3.367778697655221012E-16, 315.0000000000000000 ) ) ;
#195 = CIRCLE ( 'NONE', #172, 2.750000000000000000 ) ;
#196 = LINE ( 'NONE', #118, #112 ) ;
#197 = EDGE_LOOP ( 'NONE', ( #218, #8 ) ) ;
#198 = EDGE_CURVE ( 'NONE', #95, #2, #79, .T. ) ;
#199 = PERSON_AND_ORGANIZATION_ROLE ( 'design_owner' ) ;
#200 = ORIENTED_EDGE ( 'NONE', *, *, #14, .F. ) ;
#201 = COORDINATED_UNIVERSAL_TIME_OFFSET ( 1, 0, .AHEAD. ) ;
#202 = EDGE_CURVE ( 'NONE', #55, #109, #227, .T. ) ;
#203 = DIRECTION ( 'NONE',  ( 0.000000000000000000, 0.000000000000000000, 1.000000000000000000 ) ) ;
#204 = PERSON_AND_ORGANIZATION ( #236, #208 ) ;
#205 = AXIS2_PLACEMENT_3D ( 'NONE', #117, #78, #164 ) ;
#206 = COORDINATED_UNIVERSAL_TIME_OFFSET ( 1, 0, .AHEAD. ) ;
#207 = EDGE_CURVE ( 'NONE', #109, #55, #246, .T. ) ;
#208 = ORGANIZATION ( 'NEURÈENÝ', 'NEURÈENÝ', '' ) ;
#209 = CARTESIAN_POINT ( 'NONE',  ( 0.000000000000000000, 0.000000000000000000, 3.000000000000000000 ) ) ;
#210 = ORIENTED_EDGE ( 'NONE', *, *, #202, .F. ) ;
#211 = AXIS2_PLACEMENT_3D ( 'NONE', #179, #253, #231 ) ;
#212 = ORIENTED_EDGE ( 'NONE', *, *, #34, .F. ) ;
#213 =( NAMED_UNIT ( * ) PLANE_ANGLE_UNIT ( ) SI_UNIT ( $, .RADIAN. ) );
#214 = APPROVAL_PERSON_ORGANIZATION ( #204, #235, #248 ) ;
#215 = CARTESIAN_POINT ( 'NONE',  ( 0.000000000000000000, 0.000000000000000000, 0.000000000000000000 ) ) ;
#216 = VERTEX_POINT ( 'NONE', #12 ) ;
#217 = AXIS2_PLACEMENT_3D ( 'NONE', #68, #46, #111 ) ;
#218 = ORIENTED_EDGE ( 'NONE', *, *, #34, .T. ) ;
#219 = EDGE_CURVE ( 'NONE', #109, #95, #196, .T. ) ;
#220 = DATE_TIME_ROLE ( 'classification_date' ) ;
#221 = PRODUCT_DEFINITION_SHAPE ( 'NONE', 'NONE',  #192 ) ;
#222 = PERSON_AND_ORGANIZATION ( #236, #208 ) ;
#223 = CARTESIAN_POINT ( 'NONE',  ( 0.000000000000000000, 0.000000000000000000, 0.000000000000000000 ) ) ;
#224 = ADVANCED_FACE ( 'NONE', ( #255 ), #54, .T. ) ;
#225 = DATE_AND_TIME ( #44, #130 ) ;
#226 = PERSON_AND_ORGANIZATION_ROLE ( 'creator' ) ;
#227 = CIRCLE ( 'NONE', #211, 5.000000000000000000 ) ;
#228 = CC_DESIGN_DATE_AND_TIME_ASSIGNMENT ( #245, #169, ( #192 ) ) ;
#229 = SECURITY_CLASSIFICATION ( '', '', #147 ) ;
#230 = LINE ( 'NONE', #251, #69 ) ;
#231 = DIRECTION ( 'NONE',  ( 1.000000000000000000, 0.000000000000000000, 0.000000000000000000 ) ) ;
#232 = DIRECTION ( 'NONE',  ( -1.000000000000000000, 0.000000000000000000, 0.000000000000000000 ) ) ;
#233 = DIRECTION ( 'NONE',  ( 0.000000000000000000, 0.000000000000000000, 1.000000000000000000 ) ) ;
#234 = CARTESIAN_POINT ( 'NONE',  ( 0.000000000000000000, 0.000000000000000000, 315.0000000000000000 ) ) ;
#235 = APPROVAL ( #151, 'NEURÈENÝ' ) ;
#236 = PERSON ( 'NEURÈENÝ', 'NEURÈENÝ', 'NEURÈENÝ', ('NEURÈENÝ'), ('NEURÈENÝ'), ('NEURÈENÝ') ) ;
#237 = PLANE ( 'NONE',  #205 ) ;
#238 = ORIENTED_EDGE ( 'NONE', *, *, #219, .T. ) ;
#239 = DIRECTION ( 'NONE',  ( 1.000000000000000000, 0.000000000000000000, 0.000000000000000000 ) ) ;
#240 = ORIENTED_EDGE ( 'NONE', *, *, #101, .F. ) ;
#241 = ADVANCED_FACE ( 'NONE', ( #139 ), #155, .T. ) ;
#242 = CARTESIAN_POINT ( 'NONE',  ( 5.000000000000000000, 6.123233995736766282E-16, 0.000000000000000000 ) ) ;
#243 = APPROVAL_DATE_TIME ( #122, #180 ) ;
#244 = DIRECTION ( 'NONE',  ( 1.000000000000000000, 0.000000000000000000, 0.000000000000000000 ) ) ;
#245 = DATE_AND_TIME ( #58, #252 ) ;
#246 = CIRCLE ( 'NONE', #26, 5.000000000000000000 ) ;
#247 = DIRECTION ( 'NONE',  ( -0.000000000000000000, -0.000000000000000000, -1.000000000000000000 ) ) ;
#248 = APPROVAL_ROLE ( '' ) ;
#249 = CIRCLE ( 'NONE', #140, 5.000000000000000000 ) ;
#250 = EDGE_LOOP ( 'NONE', ( #18, #100 ) ) ;
#251 = CARTESIAN_POINT ( 'NONE',  ( -2.750000000000000000, 0.000000000000000000, 315.0000000000000000 ) ) ;
#252 = LOCAL_TIME ( 15, 33, 27.00000000000000000, #201 ) ;
#253 = DIRECTION ( 'NONE',  ( 0.000000000000000000, 0.000000000000000000, 1.000000000000000000 ) ) ;
#254 = CC_DESIGN_APPROVAL ( #180, ( #192 ) ) ;
#255 = FACE_OUTER_BOUND ( 'NONE', #138, .T. ) ;
ENDSEC;
END-ISO-10303-21;
