ISO-10303-21;
HEADER;
FILE_DESCRIPTION (( 'STEP AP203' ),
    '1' );
FILE_NAME ('d24f.STEP',
    '2023-02-13T10:17:08',
    ( '' ),
    ( '' ),
    'SwSTEP 2.0',
    'SolidWorks 2019',
    '' );
FILE_SCHEMA (( 'CONFIG_CONTROL_DESIGN' ));
ENDSEC;

DATA;
#1 = ORIENTED_EDGE ( 'NONE', *, *, #50, .T. ) ;
#2 = CYLINDRICAL_SURFACE ( 'NONE', #216, 7.000000000000000888 ) ;
#3 = DATE_AND_TIME ( #67, #251 ) ;
#4 = ORIENTED_EDGE ( 'NONE', *, *, #158, .F. ) ;
#5 = COORDINATED_UNIVERSAL_TIME_OFFSET ( 1, 0, .AHEAD. ) ;
#6 = PERSON_AND_ORGANIZATION_ROLE ( 'design_owner' ) ;
#7 = APPROVAL_STATUS ( 'not_yet_approved' ) ;
#8 = PRODUCT_DEFINITION ( 'NEZNÁMÝ', '', #202, #237 ) ;
#9 = ORIENTED_EDGE ( 'NONE', *, *, #40, .F. ) ;
#10 = APPROVAL_PERSON_ORGANIZATION ( #119, #103, #154 ) ;
#11 = APPROVAL_DATE_TIME ( #45, #215 ) ;
#12 = FACE_OUTER_BOUND ( 'NONE', #129, .T. ) ;
#13 = CARTESIAN_POINT ( 'NONE',  ( 0.000000000000000000, 0.000000000000000000, 7.000000000000000000 ) ) ;
#14 = ADVANCED_FACE ( 'NONE', ( #12 ), #187, .T. ) ;
#15 = AXIS2_PLACEMENT_3D ( 'NONE', #211, #39, #254 ) ;
#16 = FACE_OUTER_BOUND ( 'NONE', #43, .T. ) ;
#17 = DATE_AND_TIME ( #78, #184 ) ;
#18 = SHAPE_DEFINITION_REPRESENTATION ( #199, #23 ) ;
#19 = DIRECTION ( 'NONE',  ( 0.000000000000000000, 0.000000000000000000, 1.000000000000000000 ) ) ;
#20 = LINE ( 'NONE', #255, #53 ) ;
#21 = LOCAL_TIME ( 11, 17, 8.000000000000000000, #190 ) ;
#22 = UNCERTAINTY_MEASURE_WITH_UNIT (LENGTH_MEASURE( 1.000000000000000082E-05 ), #240, 'distance_accuracy_value', 'NONE');
#23 = ADVANCED_BREP_SHAPE_REPRESENTATION ( 'd24f', ( #100, #128 ), #38 ) ;
#24 = DIRECTION ( 'NONE',  ( 0.000000000000000000, 0.000000000000000000, 1.000000000000000000 ) ) ;
#25 = EDGE_LOOP ( 'NONE', ( #9, #4 ) ) ;
#26 = CARTESIAN_POINT ( 'NONE',  ( 7.000000000000000888, 8.572527594031472204E-16, 7.000000000000000000 ) ) ;
#27 = DIRECTION ( 'NONE',  ( 1.000000000000000000, 0.000000000000000000, 0.000000000000000000 ) ) ;
#28 = PERSON_AND_ORGANIZATION ( #179, #34 ) ;
#29 = VERTEX_POINT ( 'NONE', #151 ) ;
#30 = FACE_BOUND ( 'NONE', #221, .T. ) ;
#31 = ADVANCED_FACE ( 'NONE', ( #30, #152 ), #52, .T. ) ;
#32 = APPROVAL_ROLE ( '' ) ;
#33 = CIRCLE ( 'NONE', #121, 7.000000000000000888 ) ;
#34 = ORGANIZATION ( 'NEURÈENÝ', 'NEURÈENÝ', '' ) ;
#35 = CARTESIAN_POINT ( 'NONE',  ( 0.000000000000000000, 0.000000000000000000, 100.0000000000000000 ) ) ;
#36 = DIRECTION ( 'NONE',  ( 0.000000000000000000, 0.000000000000000000, 1.000000000000000000 ) ) ;
#37 = CYLINDRICAL_SURFACE ( 'NONE', #15, 11.00000000000000000 ) ;
#38 =( GEOMETRIC_REPRESENTATION_CONTEXT ( 3 ) GLOBAL_UNCERTAINTY_ASSIGNED_CONTEXT ( ( #22 ) ) GLOBAL_UNIT_ASSIGNED_CONTEXT ( ( #240, #88, #131 ) ) REPRESENTATION_CONTEXT ( 'NONE', 'WORKASPACE' ) );
#39 = DIRECTION ( 'NONE',  ( -0.000000000000000000, -0.000000000000000000, -1.000000000000000000 ) ) ;
#40 = EDGE_CURVE ( 'NONE', #224, #68, #51, .T. ) ;
#41 = CARTESIAN_POINT ( 'NONE',  ( 0.000000000000000000, 0.000000000000000000, 7.000000000000000000 ) ) ;
#42 = APPROVAL_PERSON_ORGANIZATION ( #205, #253, #32 ) ;
#43 = EDGE_LOOP ( 'NONE', ( #170, #206, #200, #207 ) ) ;
#44 = DIRECTION ( 'NONE',  ( -1.000000000000000000, 0.000000000000000000, 0.000000000000000000 ) ) ;
#45 = DATE_AND_TIME ( #247, #21 ) ;
#46 = MECHANICAL_CONTEXT ( 'NONE', #180, 'mechanical' ) ;
#47 = AXIS2_PLACEMENT_3D ( 'NONE', #117, #252, #233 ) ;
#48 = CARTESIAN_POINT ( 'NONE',  ( -7.000000000000000888, 0.000000000000000000, 7.000000000000000000 ) ) ;
#49 = VERTEX_POINT ( 'NONE', #48 ) ;
#50 = EDGE_CURVE ( 'NONE', #29, #162, #106, .T. ) ;
#51 = CIRCLE ( 'NONE', #168, 11.00000000000000000 ) ;
#52 = PLANE ( 'NONE',  #182 ) ;
#53 = VECTOR ( 'NONE', #79, 1000.000000000000000 ) ;
#54 = CARTESIAN_POINT ( 'NONE',  ( 11.00000000000000000, 1.347111479062088405E-15, 7.000000000000000000 ) ) ;
#55 = CARTESIAN_POINT ( 'NONE',  ( 0.000000000000000000, 0.000000000000000000, 7.000000000000000000 ) ) ;
#56 = COORDINATED_UNIVERSAL_TIME_OFFSET ( 1, 0, .AHEAD. ) ;
#57 = DIRECTION ( 'NONE',  ( 0.000000000000000000, 0.000000000000000000, 1.000000000000000000 ) ) ;
#58 = CC_DESIGN_APPROVAL ( #215, ( #8 ) ) ;
#59 = DIRECTION ( 'NONE',  ( 1.000000000000000000, 0.000000000000000000, 0.000000000000000000 ) ) ;
#60 = CARTESIAN_POINT ( 'NONE',  ( 0.000000000000000000, 0.000000000000000000, 7.000000000000000000 ) ) ;
#61 = ADVANCED_FACE ( 'NONE', ( #232 ), #213, .T. ) ;
#62 = ORIENTED_EDGE ( 'NONE', *, *, #230, .F. ) ;
#63 = APPROVAL_PERSON_ORGANIZATION ( #246, #215, #69 ) ;
#64 = COORDINATED_UNIVERSAL_TIME_OFFSET ( 1, 0, .AHEAD. ) ;
#65 = DIRECTION ( 'NONE',  ( 0.000000000000000000, 0.000000000000000000, 1.000000000000000000 ) ) ;
#66 = CC_DESIGN_PERSON_AND_ORGANIZATION_ASSIGNMENT ( #28, #218, ( #202 ) ) ;
#67 = CALENDAR_DATE ( 2023, 13, 2 ) ;
#68 = VERTEX_POINT ( 'NONE', #156 ) ;
#69 = APPROVAL_ROLE ( '' ) ;
#70 = DIRECTION ( 'NONE',  ( -1.000000000000000000, 0.000000000000000000, 0.000000000000000000 ) ) ;
#71 = CARTESIAN_POINT ( 'NONE',  ( 0.000000000000000000, 0.000000000000000000, 100.0000000000000000 ) ) ;
#72 = CIRCLE ( 'NONE', #124, 7.000000000000000888 ) ;
#73 = DIRECTION ( 'NONE',  ( -0.000000000000000000, -0.000000000000000000, -1.000000000000000000 ) ) ;
#74 = LOCAL_TIME ( 11, 17, 8.000000000000000000, #111 ) ;
#75 = PLANE ( 'NONE',  #250 ) ;
#76 = DIRECTION ( 'NONE',  ( 1.000000000000000000, 0.000000000000000000, -0.000000000000000000 ) ) ;
#77 = EDGE_CURVE ( 'NONE', #162, #29, #201, .T. ) ;
#78 = CALENDAR_DATE ( 2023, 13, 2 ) ;
#79 = DIRECTION ( 'NONE',  ( -0.000000000000000000, -0.000000000000000000, -1.000000000000000000 ) ) ;
#80 = CC_DESIGN_PERSON_AND_ORGANIZATION_ASSIGNMENT ( #183, #90, ( #8 ) ) ;
#81 = DIRECTION ( 'NONE',  ( -0.000000000000000000, -0.000000000000000000, -1.000000000000000000 ) ) ;
#82 = ORIENTED_EDGE ( 'NONE', *, *, #118, .T. ) ;
#83 = CARTESIAN_POINT ( 'NONE',  ( -11.00000000000000000, 0.000000000000000000, 0.000000000000000000 ) ) ;
#84 = AXIS2_PLACEMENT_3D ( 'NONE', #71, #97, #70 ) ;
#85 = SECURITY_CLASSIFICATION_LEVEL ( 'unclassified' ) ;
#86 = VERTEX_POINT ( 'NONE', #210 ) ;
#87 = EDGE_CURVE ( 'NONE', #130, #86, #72, .T. ) ;
#88 =( NAMED_UNIT ( * ) PLANE_ANGLE_UNIT ( ) SI_UNIT ( $, .RADIAN. ) );
#89 = ORIENTED_EDGE ( 'NONE', *, *, #158, .T. ) ;
#90 = PERSON_AND_ORGANIZATION_ROLE ( 'creator' ) ;
#91 = ORIENTED_EDGE ( 'NONE', *, *, #87, .T. ) ;
#92 = DIRECTION ( 'NONE',  ( 0.000000000000000000, 0.000000000000000000, 1.000000000000000000 ) ) ;
#93 = AXIS2_PLACEMENT_3D ( 'NONE', #13, #98, #173 ) ;
#94 = SECURITY_CLASSIFICATION ( '', '', #85 ) ;
#95 = ORIENTED_EDGE ( 'NONE', *, *, #149, .F. ) ;
#96 = CALENDAR_DATE ( 2023, 13, 2 ) ;
#97 = DIRECTION ( 'NONE',  ( -0.000000000000000000, -0.000000000000000000, -1.000000000000000000 ) ) ;
#98 = DIRECTION ( 'NONE',  ( -0.000000000000000000, -0.000000000000000000, -1.000000000000000000 ) ) ;
#99 = AXIS2_PLACEMENT_3D ( 'NONE', #55, #138, #157 ) ;
#100 = MANIFOLD_SOLID_BREP ( 'Pøidat vysunutím3', #241 ) ;
#101 = CARTESIAN_POINT ( 'NONE',  ( -11.00000000000000000, 0.000000000000000000, 7.000000000000000000 ) ) ;
#102 = ADVANCED_FACE ( 'NONE', ( #16 ), #37, .T. ) ;
#103 = APPROVAL ( #195, 'NEURÈENÝ' ) ;
#104 = APPROVAL_DATE_TIME ( #17, #103 ) ;
#105 = DIRECTION ( 'NONE',  ( -0.000000000000000000, -0.000000000000000000, -1.000000000000000000 ) ) ;
#106 = CIRCLE ( 'NONE', #99, 11.00000000000000000 ) ;
#107 = EDGE_LOOP ( 'NONE', ( #62, #125, #82, #172 ) ) ;
#108 = APPLICATION_PROTOCOL_DEFINITION ( 'international standard', 'config_control_design', 1994, #180 ) ;
#109 = DATE_TIME_ROLE ( 'classification_date' ) ;
#110 = EDGE_LOOP ( 'NONE', ( #167, #148, #89, #116 ) ) ;
#111 = COORDINATED_UNIVERSAL_TIME_OFFSET ( 1, 0, .AHEAD. ) ;
#112 = EDGE_LOOP ( 'NONE', ( #1, #191 ) ) ;
#113 = APPROVAL_STATUS ( 'not_yet_approved' ) ;
#114 = VECTOR ( 'NONE', #135, 1000.000000000000000 ) ;
#115 = EDGE_CURVE ( 'NONE', #130, #49, #175, .T. ) ;
#116 = ORIENTED_EDGE ( 'NONE', *, *, #141, .F. ) ;
#117 = CARTESIAN_POINT ( 'NONE',  ( 0.000000000000000000, 0.000000000000000000, 7.000000000000000000 ) ) ;
#118 = EDGE_CURVE ( 'NONE', #189, #49, #160, .T. ) ;
#119 = PERSON_AND_ORGANIZATION ( #179, #34 ) ;
#120 = DIRECTION ( 'NONE',  ( 0.000000000000000000, 0.000000000000000000, 1.000000000000000000 ) ) ;
#121 = AXIS2_PLACEMENT_3D ( 'NONE', #164, #24, #238 ) ;
#122 = DIRECTION ( 'NONE',  ( 0.000000000000000000, 0.000000000000000000, 1.000000000000000000 ) ) ;
#123 = CARTESIAN_POINT ( 'NONE',  ( -7.000000000000000888, 0.000000000000000000, 100.0000000000000000 ) ) ;
#124 = AXIS2_PLACEMENT_3D ( 'NONE', #35, #57, #176 ) ;
#125 = ORIENTED_EDGE ( 'NONE', *, *, #149, .T. ) ;
#126 = PERSON_AND_ORGANIZATION_ROLE ( 'creator' ) ;
#127 = PERSON_AND_ORGANIZATION ( #179, #34 ) ;
#128 = AXIS2_PLACEMENT_3D ( 'NONE', #225, #92, #27 ) ;
#129 = EDGE_LOOP ( 'NONE', ( #95, #147, #185, #226 ) ) ;
#130 = VERTEX_POINT ( 'NONE', #123 ) ;
#131 =( NAMED_UNIT ( * ) SI_UNIT ( $, .STERADIAN. ) SOLID_ANGLE_UNIT ( ) );
#132 = ORIENTED_EDGE ( 'NONE', *, *, #230, .T. ) ;
#133 = AXIS2_PLACEMENT_3D ( 'NONE', #174, #249, #159 ) ;
#134 = DIRECTION ( 'NONE',  ( 0.000000000000000000, 0.000000000000000000, 1.000000000000000000 ) ) ;
#135 = DIRECTION ( 'NONE',  ( -0.000000000000000000, -0.000000000000000000, -1.000000000000000000 ) ) ;
#136 = EDGE_CURVE ( 'NONE', #49, #189, #220, .T. ) ;
#137 = CC_DESIGN_DATE_AND_TIME_ASSIGNMENT ( #3, #223, ( #8 ) ) ;
#138 = DIRECTION ( 'NONE',  ( 0.000000000000000000, 0.000000000000000000, 1.000000000000000000 ) ) ;
#139 = FACE_OUTER_BOUND ( 'NONE', #110, .T. ) ;
#140 = PRODUCT ( 'd24f', 'd24f', '', ( #46 ) ) ;
#141 = EDGE_CURVE ( 'NONE', #29, #224, #197, .T. ) ;
#142 = CIRCLE ( 'NONE', #133, 11.00000000000000000 ) ;
#143 = APPROVAL_DATE_TIME ( #171, #253 ) ;
#144 = CALENDAR_DATE ( 2023, 13, 2 ) ;
#145 = AXIS2_PLACEMENT_3D ( 'NONE', #60, #120, #59 ) ;
#146 = APPLICATION_PROTOCOL_DEFINITION ( 'international standard', 'config_control_design', 1994, #196 ) ;
#147 = ORIENTED_EDGE ( 'NONE', *, *, #87, .F. ) ;
#148 = ORIENTED_EDGE ( 'NONE', *, *, #178, .T. ) ;
#149 = EDGE_CURVE ( 'NONE', #86, #189, #20, .T. ) ;
#150 = PERSON_AND_ORGANIZATION ( #179, #34 ) ;
#151 = CARTESIAN_POINT ( 'NONE',  ( -11.00000000000000000, 0.000000000000000000, 7.000000000000000000 ) ) ;
#152 = FACE_OUTER_BOUND ( 'NONE', #112, .T. ) ;
#153 = CARTESIAN_POINT ( 'NONE',  ( 11.00000000000000000, 1.347111479062088405E-15, 7.000000000000000000 ) ) ;
#154 = APPROVAL_ROLE ( '' ) ;
#155 = CARTESIAN_POINT ( 'NONE',  ( 0.000000000000000000, 0.000000000000000000, 0.000000000000000000 ) ) ;
#156 = CARTESIAN_POINT ( 'NONE',  ( 11.00000000000000000, 1.347111479062088405E-15, 0.000000000000000000 ) ) ;
#157 = DIRECTION ( 'NONE',  ( 1.000000000000000000, 0.000000000000000000, 0.000000000000000000 ) ) ;
#158 = EDGE_CURVE ( 'NONE', #68, #224, #142, .T. ) ;
#159 = DIRECTION ( 'NONE',  ( 1.000000000000000000, 0.000000000000000000, 0.000000000000000000 ) ) ;
#160 = CIRCLE ( 'NONE', #47, 7.000000000000000888 ) ;
#161 = ADVANCED_FACE ( 'NONE', ( #139 ), #192, .T. ) ;
#162 = VERTEX_POINT ( 'NONE', #153 ) ;
#163 = CC_DESIGN_PERSON_AND_ORGANIZATION_ASSIGNMENT ( #217, #126, ( #202 ) ) ;
#164 = CARTESIAN_POINT ( 'NONE',  ( 0.000000000000000000, 0.000000000000000000, 100.0000000000000000 ) ) ;
#165 = LOCAL_TIME ( 11, 17, 8.000000000000000000, #64 ) ;
#166 = DIRECTION ( 'NONE',  ( 1.000000000000000000, 0.000000000000000000, -0.000000000000000000 ) ) ;
#167 = ORIENTED_EDGE ( 'NONE', *, *, #77, .F. ) ;
#168 = AXIS2_PLACEMENT_3D ( 'NONE', #243, #65, #219 ) ;
#169 = CC_DESIGN_PERSON_AND_ORGANIZATION_ASSIGNMENT ( #150, #6, ( #140 ) ) ;
#170 = ORIENTED_EDGE ( 'NONE', *, *, #178, .F. ) ;
#171 = DATE_AND_TIME ( #96, #74 ) ;
#172 = ORIENTED_EDGE ( 'NONE', *, *, #115, .F. ) ;
#173 = DIRECTION ( 'NONE',  ( -1.000000000000000000, 0.000000000000000000, 0.000000000000000000 ) ) ;
#174 = CARTESIAN_POINT ( 'NONE',  ( 0.000000000000000000, 0.000000000000000000, 0.000000000000000000 ) ) ;
#175 = LINE ( 'NONE', #234, #214 ) ;
#176 = DIRECTION ( 'NONE',  ( 1.000000000000000000, 0.000000000000000000, 0.000000000000000000 ) ) ;
#177 = CARTESIAN_POINT ( 'NONE',  ( 0.000000000000000000, 0.000000000000000000, 100.0000000000000000 ) ) ;
#178 = EDGE_CURVE ( 'NONE', #162, #68, #228, .T. ) ;
#179 = PERSON ( 'NEURÈENÝ', 'NEURÈENÝ', 'NEURÈENÝ', ('NEURÈENÝ'), ('NEURÈENÝ'), ('NEURÈENÝ') ) ;
#180 = APPLICATION_CONTEXT ( 'configuration controlled 3d designs of mechanical parts and assemblies' ) ;
#181 = FACE_OUTER_BOUND ( 'NONE', #107, .T. ) ;
#182 = AXIS2_PLACEMENT_3D ( 'NONE', #244, #134, #166 ) ;
#183 = PERSON_AND_ORGANIZATION ( #179, #34 ) ;
#184 = LOCAL_TIME ( 11, 17, 8.000000000000000000, #56 ) ;
#185 = ORIENTED_EDGE ( 'NONE', *, *, #115, .T. ) ;
#186 = ADVANCED_FACE ( 'NONE', ( #209 ), #75, .F. ) ;
#187 = CYLINDRICAL_SURFACE ( 'NONE', #84, 7.000000000000000888 ) ;
#188 = CC_DESIGN_DATE_AND_TIME_ASSIGNMENT ( #203, #109, ( #94 ) ) ;
#189 = VERTEX_POINT ( 'NONE', #26 ) ;
#190 = COORDINATED_UNIVERSAL_TIME_OFFSET ( 1, 0, .AHEAD. ) ;
#191 = ORIENTED_EDGE ( 'NONE', *, *, #77, .T. ) ;
#192 = CYLINDRICAL_SURFACE ( 'NONE', #93, 11.00000000000000000 ) ;
#193 = DIRECTION ( 'NONE',  ( 1.000000000000000000, 0.000000000000000000, 0.000000000000000000 ) ) ;
#194 = ADVANCED_FACE ( 'NONE', ( #181 ), #2, .T. ) ;
#195 = APPROVAL_STATUS ( 'not_yet_approved' ) ;
#196 = APPLICATION_CONTEXT ( 'configuration controlled 3d designs of mechanical parts and assemblies' ) ;
#197 = LINE ( 'NONE', #101, #245 ) ;
#198 = AXIS2_PLACEMENT_3D ( 'NONE', #41, #122, #193 ) ;
#199 = PRODUCT_DEFINITION_SHAPE ( 'NONE', 'NONE',  #8 ) ;
#200 = ORIENTED_EDGE ( 'NONE', *, *, #141, .T. ) ;
#201 = CIRCLE ( 'NONE', #198, 11.00000000000000000 ) ;
#202 = PRODUCT_DEFINITION_FORMATION_WITH_SPECIFIED_SOURCE ( 'LIBOVOLNÝ', '', #140, .NOT_KNOWN. ) ;
#203 = DATE_AND_TIME ( #144, #165 ) ;
#204 = ORIENTED_EDGE ( 'NONE', *, *, #118, .F. ) ;
#205 = PERSON_AND_ORGANIZATION ( #179, #34 ) ;
#206 = ORIENTED_EDGE ( 'NONE', *, *, #50, .F. ) ;
#207 = ORIENTED_EDGE ( 'NONE', *, *, #40, .T. ) ;
#208 = CC_DESIGN_APPROVAL ( #253, ( #202 ) ) ;
#209 = FACE_OUTER_BOUND ( 'NONE', #25, .T. ) ;
#210 = CARTESIAN_POINT ( 'NONE',  ( 7.000000000000000888, 8.572527594031472204E-16, 100.0000000000000000 ) ) ;
#211 = CARTESIAN_POINT ( 'NONE',  ( 0.000000000000000000, 0.000000000000000000, 7.000000000000000000 ) ) ;
#212 = PRODUCT_RELATED_PRODUCT_CATEGORY ( 'detail', '', ( #140 ) ) ;
#213 = PLANE ( 'NONE',  #235 ) ;
#214 = VECTOR ( 'NONE', #73, 1000.000000000000000 ) ;
#215 = APPROVAL ( #113, 'NEURÈENÝ' ) ;
#216 = AXIS2_PLACEMENT_3D ( 'NONE', #236, #81, #44 ) ;
#217 = PERSON_AND_ORGANIZATION ( #179, #34 ) ;
#218 = PERSON_AND_ORGANIZATION_ROLE ( 'design_supplier' ) ;
#219 = DIRECTION ( 'NONE',  ( 1.000000000000000000, 0.000000000000000000, 0.000000000000000000 ) ) ;
#220 = CIRCLE ( 'NONE', #145, 7.000000000000000888 ) ;
#221 = EDGE_LOOP ( 'NONE', ( #248, #204 ) ) ;
#222 = CC_DESIGN_SECURITY_CLASSIFICATION ( #94, ( #202 ) ) ;
#223 = DATE_TIME_ROLE ( 'creation_date' ) ;
#224 = VERTEX_POINT ( 'NONE', #83 ) ;
#225 = CARTESIAN_POINT ( 'NONE',  ( 0.000000000000000000, 0.000000000000000000, 0.000000000000000000 ) ) ;
#226 = ORIENTED_EDGE ( 'NONE', *, *, #136, .T. ) ;
#227 = CC_DESIGN_APPROVAL ( #103, ( #94 ) ) ;
#228 = LINE ( 'NONE', #54, #114 ) ;
#229 = DIRECTION ( 'NONE',  ( 1.000000000000000000, 0.000000000000000000, -0.000000000000000000 ) ) ;
#230 = EDGE_CURVE ( 'NONE', #86, #130, #33, .T. ) ;
#231 = CC_DESIGN_PERSON_AND_ORGANIZATION_ASSIGNMENT ( #127, #242, ( #94 ) ) ;
#232 = FACE_OUTER_BOUND ( 'NONE', #239, .T. ) ;
#233 = DIRECTION ( 'NONE',  ( 1.000000000000000000, 0.000000000000000000, 0.000000000000000000 ) ) ;
#234 = CARTESIAN_POINT ( 'NONE',  ( -7.000000000000000888, 0.000000000000000000, 100.0000000000000000 ) ) ;
#235 = AXIS2_PLACEMENT_3D ( 'NONE', #177, #19, #76 ) ;
#236 = CARTESIAN_POINT ( 'NONE',  ( 0.000000000000000000, 0.000000000000000000, 100.0000000000000000 ) ) ;
#237 = DESIGN_CONTEXT ( 'detailed design', #196, 'design' ) ;
#238 = DIRECTION ( 'NONE',  ( 1.000000000000000000, 0.000000000000000000, 0.000000000000000000 ) ) ;
#239 = EDGE_LOOP ( 'NONE', ( #91, #132 ) ) ;
#240 =( LENGTH_UNIT ( ) NAMED_UNIT ( * ) SI_UNIT ( .MILLI., .METRE. ) );
#241 = CLOSED_SHELL ( 'NONE', ( #194, #161, #102, #31, #186, #14, #61 ) ) ;
#242 = PERSON_AND_ORGANIZATION_ROLE ( 'classification_officer' ) ;
#243 = CARTESIAN_POINT ( 'NONE',  ( 0.000000000000000000, 0.000000000000000000, 0.000000000000000000 ) ) ;
#244 = CARTESIAN_POINT ( 'NONE',  ( 0.000000000000000000, 0.000000000000000000, 7.000000000000000000 ) ) ;
#245 = VECTOR ( 'NONE', #105, 1000.000000000000000 ) ;
#246 = PERSON_AND_ORGANIZATION ( #179, #34 ) ;
#247 = CALENDAR_DATE ( 2023, 13, 2 ) ;
#248 = ORIENTED_EDGE ( 'NONE', *, *, #136, .F. ) ;
#249 = DIRECTION ( 'NONE',  ( 0.000000000000000000, 0.000000000000000000, 1.000000000000000000 ) ) ;
#250 = AXIS2_PLACEMENT_3D ( 'NONE', #155, #36, #229 ) ;
#251 = LOCAL_TIME ( 11, 17, 8.000000000000000000, #5 ) ;
#252 = DIRECTION ( 'NONE',  ( 0.000000000000000000, 0.000000000000000000, 1.000000000000000000 ) ) ;
#253 = APPROVAL ( #7, 'NEURÈENÝ' ) ;
#254 = DIRECTION ( 'NONE',  ( -1.000000000000000000, 0.000000000000000000, 0.000000000000000000 ) ) ;
#255 = CARTESIAN_POINT ( 'NONE',  ( 7.000000000000000888, 8.572527594031472204E-16, 100.0000000000000000 ) ) ;
ENDSEC;
END-ISO-10303-21;
