ISO-10303-21;
HEADER;
FILE_DESCRIPTION (( 'STEP AP203' ),
    '1' );
FILE_NAME ('cf57.STEP',
    '2023-01-31T14:50:20',
    ( '' ),
    ( '' ),
    'SwSTEP 2.0',
    'SolidWorks 2019',
    '' );
FILE_SCHEMA (( 'CONFIG_CONTROL_DESIGN' ));
ENDSEC;

DATA;
#1 = CC_DESIGN_PERSON_AND_ORGANIZATION_ASSIGNMENT ( #10, #87, ( #167 ) ) ;
#2 = AXIS2_PLACEMENT_3D ( 'NONE', #64, #50, #221 ) ;
#3 = CARTESIAN_POINT ( 'NONE',  ( 0.000000000000000000, 0.000000000000000000, 0.000000000000000000 ) ) ;
#4 = LINE ( 'NONE', #130, #57 ) ;
#5 = VECTOR ( 'NONE', #142, 1000.000000000000000 ) ;
#6 = DIRECTION ( 'NONE',  ( -0.000000000000000000, -0.000000000000000000, -1.000000000000000000 ) ) ;
#7 = CARTESIAN_POINT ( 'NONE',  ( 0.5000000000000000000, 6.123233995736766036E-17, 100.0000000000000000 ) ) ;
#8 = APPROVAL ( #231, 'NEURÈENÝ' ) ;
#9 = DIRECTION ( 'NONE',  ( 0.000000000000000000, 0.000000000000000000, 1.000000000000000000 ) ) ;
#10 = PERSON_AND_ORGANIZATION ( #184, #40 ) ;
#11 = ORIENTED_EDGE ( 'NONE', *, *, #213, .T. ) ;
#12 =( NAMED_UNIT ( * ) PLANE_ANGLE_UNIT ( ) SI_UNIT ( $, .RADIAN. ) );
#13 = CALENDAR_DATE ( 2023, 31, 1 ) ;
#14 = VERTEX_POINT ( 'NONE', #75 ) ;
#15 = APPROVAL_ROLE ( '' ) ;
#16 = CC_DESIGN_APPROVAL ( #131, ( #167 ) ) ;
#17 = AXIS2_PLACEMENT_3D ( 'NONE', #98, #99, #208 ) ;
#18 = PERSON_AND_ORGANIZATION_ROLE ( 'design_supplier' ) ;
#19 = ORIENTED_EDGE ( 'NONE', *, *, #168, .T. ) ;
#20 = EDGE_CURVE ( 'NONE', #132, #136, #62, .T. ) ;
#21 = CIRCLE ( 'NONE', #165, 1.250000000000000000 ) ;
#22 = ORIENTED_EDGE ( 'NONE', *, *, #61, .T. ) ;
#23 = EDGE_LOOP ( 'NONE', ( #181, #32 ) ) ;
#24 = CARTESIAN_POINT ( 'NONE',  ( 0.5000000000000000000, 6.123233995736766036E-17, 1.199999999999999956 ) ) ;
#25 = CARTESIAN_POINT ( 'NONE',  ( 0.000000000000000000, 0.000000000000000000, 0.000000000000000000 ) ) ;
#26 = ORIENTED_EDGE ( 'NONE', *, *, #162, .T. ) ;
#27 = DIRECTION ( 'NONE',  ( 0.000000000000000000, 0.000000000000000000, 1.000000000000000000 ) ) ;
#28 = EDGE_CURVE ( 'NONE', #59, #92, #214, .T. ) ;
#29 = CARTESIAN_POINT ( 'NONE',  ( 0.000000000000000000, 0.000000000000000000, 1.199999999999999956 ) ) ;
#30 = ORIENTED_EDGE ( 'NONE', *, *, #28, .F. ) ;
#31 = CYLINDRICAL_SURFACE ( 'NONE', #244, 0.5000000000000000000 ) ;
#32 = ORIENTED_EDGE ( 'NONE', *, *, #162, .F. ) ;
#33 = DIRECTION ( 'NONE',  ( 1.000000000000000000, 0.000000000000000000, -0.000000000000000000 ) ) ;
#34 = PERSON_AND_ORGANIZATION ( #184, #40 ) ;
#35 = SECURITY_CLASSIFICATION_LEVEL ( 'unclassified' ) ;
#36 = AXIS2_PLACEMENT_3D ( 'NONE', #188, #241, #124 ) ;
#37 = CARTESIAN_POINT ( 'NONE',  ( 0.000000000000000000, 0.000000000000000000, 1.199999999999999956 ) ) ;
#38 = PERSON_AND_ORGANIZATION_ROLE ( 'creator' ) ;
#39 = VERTEX_POINT ( 'NONE', #24 ) ;
#40 = ORGANIZATION ( 'NEURÈENÝ', 'NEURÈENÝ', '' ) ;
#41 = FACE_OUTER_BOUND ( 'NONE', #74, .T. ) ;
#42 = AXIS2_PLACEMENT_3D ( 'NONE', #86, #226, #209 ) ;
#43 = CARTESIAN_POINT ( 'NONE',  ( 1.250000000000000000, 1.530808498934191571E-16, 0.000000000000000000 ) ) ;
#44 = EDGE_CURVE ( 'NONE', #59, #218, #121, .T. ) ;
#45 = CARTESIAN_POINT ( 'NONE',  ( 0.5000000000000000000, 6.123233995736766036E-17, 100.0000000000000000 ) ) ;
#46 = PLANE ( 'NONE',  #2 ) ;
#47 = ORIENTED_EDGE ( 'NONE', *, *, #44, .T. ) ;
#48 = SECURITY_CLASSIFICATION ( '', '', #35 ) ;
#49 = AXIS2_PLACEMENT_3D ( 'NONE', #25, #66, #169 ) ;
#50 = DIRECTION ( 'NONE',  ( 0.000000000000000000, 0.000000000000000000, 1.000000000000000000 ) ) ;
#51 = DIRECTION ( 'NONE',  ( 1.000000000000000000, 0.000000000000000000, 0.000000000000000000 ) ) ;
#52 = CALENDAR_DATE ( 2023, 31, 1 ) ;
#53 = PERSON_AND_ORGANIZATION ( #184, #40 ) ;
#54 = COORDINATED_UNIVERSAL_TIME_OFFSET ( 1, 0, .AHEAD. ) ;
#55 = CC_DESIGN_PERSON_AND_ORGANIZATION_ASSIGNMENT ( #34, #38, ( #97 ) ) ;
#56 = CARTESIAN_POINT ( 'NONE',  ( 0.000000000000000000, 0.000000000000000000, 0.000000000000000000 ) ) ;
#57 = VECTOR ( 'NONE', #223, 1000.000000000000000 ) ;
#58 = LOCAL_TIME ( 15, 50, 20.00000000000000000, #107 ) ;
#59 = VERTEX_POINT ( 'NONE', #143 ) ;
#60 = CARTESIAN_POINT ( 'NONE',  ( -0.5000000000000000000, 0.000000000000000000, 100.0000000000000000 ) ) ;
#61 = EDGE_CURVE ( 'NONE', #132, #126, #109, .T. ) ;
#62 = LINE ( 'NONE', #239, #5 ) ;
#63 = VECTOR ( 'NONE', #227, 1000.000000000000000 ) ;
#64 = CARTESIAN_POINT ( 'NONE',  ( 0.000000000000000000, 0.000000000000000000, 100.0000000000000000 ) ) ;
#65 = EDGE_LOOP ( 'NONE', ( #229, #190, #19, #235 ) ) ;
#66 = DIRECTION ( 'NONE',  ( 0.000000000000000000, 0.000000000000000000, 1.000000000000000000 ) ) ;
#67 = ORIENTED_EDGE ( 'NONE', *, *, #61, .F. ) ;
#68 = MANIFOLD_SOLID_BREP ( 'Pøidat vysunutím3', #118 ) ;
#69 = DATE_AND_TIME ( #250, #225 ) ;
#70 = EDGE_CURVE ( 'NONE', #92, #59, #146, .T. ) ;
#71 = DATE_TIME_ROLE ( 'classification_date' ) ;
#72 = PERSON_AND_ORGANIZATION ( #184, #40 ) ;
#73 = AXIS2_PLACEMENT_3D ( 'NONE', #37, #191, #51 ) ;
#74 = EDGE_LOOP ( 'NONE', ( #240, #119 ) ) ;
#75 = CARTESIAN_POINT ( 'NONE',  ( -1.250000000000000000, 0.000000000000000000, 0.000000000000000000 ) ) ;
#76 = EDGE_LOOP ( 'NONE', ( #117, #93 ) ) ;
#77 = CC_DESIGN_APPROVAL ( #175, ( #48 ) ) ;
#78 = PRODUCT_RELATED_PRODUCT_CATEGORY ( 'detail', '', ( #249 ) ) ;
#79 = AXIS2_PLACEMENT_3D ( 'NONE', #173, #185, #84 ) ;
#80 = ADVANCED_FACE ( 'NONE', ( #166 ), #171, .T. ) ;
#81 = CARTESIAN_POINT ( 'NONE',  ( 0.000000000000000000, 0.000000000000000000, 1.199999999999999956 ) ) ;
#82 = ORIENTED_EDGE ( 'NONE', *, *, #254, .T. ) ;
#83 = PLANE ( 'NONE',  #49 ) ;
#84 = DIRECTION ( 'NONE',  ( 1.000000000000000000, 0.000000000000000000, 0.000000000000000000 ) ) ;
#85 = DIRECTION ( 'NONE',  ( 1.000000000000000000, 0.000000000000000000, 0.000000000000000000 ) ) ;
#86 = CARTESIAN_POINT ( 'NONE',  ( 0.000000000000000000, 0.000000000000000000, 1.199999999999999956 ) ) ;
#87 = PERSON_AND_ORGANIZATION_ROLE ( 'creator' ) ;
#88 = ADVANCED_FACE ( 'NONE', ( #41 ), #46, .T. ) ;
#89 = LOCAL_TIME ( 15, 50, 20.00000000000000000, #234 ) ;
#90 = MECHANICAL_CONTEXT ( 'NONE', #153, 'mechanical' ) ;
#91 = DATE_AND_TIME ( #178, #100 ) ;
#92 = VERTEX_POINT ( 'NONE', #45 ) ;
#93 = ORIENTED_EDGE ( 'NONE', *, *, #168, .F. ) ;
#94 = CIRCLE ( 'NONE', #202, 1.250000000000000000 ) ;
#95 = DIRECTION ( 'NONE',  ( 0.000000000000000000, 0.000000000000000000, 1.000000000000000000 ) ) ;
#96 = EDGE_LOOP ( 'NONE', ( #11, #22 ) ) ;
#97 = PRODUCT_DEFINITION ( 'NEZNÁMÝ', '', #167, #103 ) ;
#98 = CARTESIAN_POINT ( 'NONE',  ( 0.000000000000000000, 0.000000000000000000, 1.199999999999999956 ) ) ;
#99 = DIRECTION ( 'NONE',  ( -0.000000000000000000, -0.000000000000000000, -1.000000000000000000 ) ) ;
#100 = LOCAL_TIME ( 15, 50, 20.00000000000000000, #54 ) ;
#101 = DIRECTION ( 'NONE',  ( -0.000000000000000000, -0.000000000000000000, -1.000000000000000000 ) ) ;
#102 = CARTESIAN_POINT ( 'NONE',  ( 0.000000000000000000, 0.000000000000000000, 100.0000000000000000 ) ) ;
#103 = DESIGN_CONTEXT ( 'detailed design', #206, 'design' ) ;
#104 = CARTESIAN_POINT ( 'NONE',  ( -0.5000000000000000000, 0.000000000000000000, 1.199999999999999956 ) ) ;
#105 = CC_DESIGN_PERSON_AND_ORGANIZATION_ASSIGNMENT ( #113, #18, ( #167 ) ) ;
#106 = FACE_OUTER_BOUND ( 'NONE', #96, .T. ) ;
#107 = COORDINATED_UNIVERSAL_TIME_OFFSET ( 1, 0, .AHEAD. ) ;
#108 = EDGE_CURVE ( 'NONE', #126, #14, #4, .T. ) ;
#109 = CIRCLE ( 'NONE', #182, 1.250000000000000000 ) ;
#110 =( NAMED_UNIT ( * ) SI_UNIT ( $, .STERADIAN. ) SOLID_ANGLE_UNIT ( ) );
#111 = APPROVAL_DATE_TIME ( #134, #175 ) ;
#112 = DIRECTION ( 'NONE',  ( 0.000000000000000000, 0.000000000000000000, 1.000000000000000000 ) ) ;
#113 = PERSON_AND_ORGANIZATION ( #184, #40 ) ;
#114 = CC_DESIGN_SECURITY_CLASSIFICATION ( #48, ( #167 ) ) ;
#115 = APPROVAL_DATE_TIME ( #192, #131 ) ;
#116 = EDGE_LOOP ( 'NONE', ( #158, #243, #144, #82 ) ) ;
#117 = ORIENTED_EDGE ( 'NONE', *, *, #248, .F. ) ;
#118 = CLOSED_SHELL ( 'NONE', ( #204, #186, #80, #238, #149, #140, #88 ) ) ;
#119 = ORIENTED_EDGE ( 'NONE', *, *, #70, .T. ) ;
#120 = DIRECTION ( 'NONE',  ( 1.000000000000000000, 0.000000000000000000, 0.000000000000000000 ) ) ;
#121 = LINE ( 'NONE', #60, #129 ) ;
#122 = FACE_OUTER_BOUND ( 'NONE', #203, .T. ) ;
#123 = AXIS2_PLACEMENT_3D ( 'NONE', #29, #101, #224 ) ;
#124 = DIRECTION ( 'NONE',  ( -1.000000000000000000, 0.000000000000000000, 0.000000000000000000 ) ) ;
#125 = DIRECTION ( 'NONE',  ( 0.000000000000000000, 0.000000000000000000, 1.000000000000000000 ) ) ;
#126 = VERTEX_POINT ( 'NONE', #172 ) ;
#127 = AXIS2_PLACEMENT_3D ( 'NONE', #56, #159, #217 ) ;
#128 = FACE_OUTER_BOUND ( 'NONE', #219, .T. ) ;
#129 = VECTOR ( 'NONE', #242, 1000.000000000000000 ) ;
#130 = CARTESIAN_POINT ( 'NONE',  ( -1.250000000000000000, 0.000000000000000000, 1.199999999999999956 ) ) ;
#131 = APPROVAL ( #215, 'NEURÈENÝ' ) ;
#132 = VERTEX_POINT ( 'NONE', #245 ) ;
#133 = DIRECTION ( 'NONE',  ( 1.000000000000000000, 0.000000000000000000, 0.000000000000000000 ) ) ;
#134 = DATE_AND_TIME ( #52, #201 ) ;
#135 = CARTESIAN_POINT ( 'NONE',  ( 0.000000000000000000, 0.000000000000000000, 0.000000000000000000 ) ) ;
#136 = VERTEX_POINT ( 'NONE', #43 ) ;
#137 = PERSON_AND_ORGANIZATION ( #184, #40 ) ;
#138 = CC_DESIGN_DATE_AND_TIME_ASSIGNMENT ( #69, #71, ( #48 ) ) ;
#139 = APPROVAL_DATE_TIME ( #212, #8 ) ;
#140 = ADVANCED_FACE ( 'NONE', ( #128 ), #222, .T. ) ;
#141 = UNCERTAINTY_MEASURE_WITH_UNIT (LENGTH_MEASURE( 1.000000000000000082E-05 ), #150, 'distance_accuracy_value', 'NONE');
#142 = DIRECTION ( 'NONE',  ( -0.000000000000000000, -0.000000000000000000, -1.000000000000000000 ) ) ;
#143 = CARTESIAN_POINT ( 'NONE',  ( -0.5000000000000000000, 0.000000000000000000, 100.0000000000000000 ) ) ;
#144 = ORIENTED_EDGE ( 'NONE', *, *, #108, .T. ) ;
#145 = DIRECTION ( 'NONE',  ( 1.000000000000000000, 0.000000000000000000, 0.000000000000000000 ) ) ;
#146 = CIRCLE ( 'NONE', #79, 0.5000000000000000000 ) ;
#147 = DIRECTION ( 'NONE',  ( 1.000000000000000000, 0.000000000000000000, 0.000000000000000000 ) ) ;
#148 = DIRECTION ( 'NONE',  ( -1.000000000000000000, 0.000000000000000000, 0.000000000000000000 ) ) ;
#149 = ADVANCED_FACE ( 'NONE', ( #205 ), #83, .F. ) ;
#150 =( LENGTH_UNIT ( ) NAMED_UNIT ( * ) SI_UNIT ( .MILLI., .METRE. ) );
#151 = APPLICATION_PROTOCOL_DEFINITION ( 'international standard', 'config_control_design', 1994, #153 ) ;
#152 = APPROVAL_ROLE ( '' ) ;
#153 = APPLICATION_CONTEXT ( 'configuration controlled 3d designs of mechanical parts and assemblies' ) ;
#154 = PRODUCT_DEFINITION_SHAPE ( 'NONE', 'NONE',  #97 ) ;
#155 = CC_DESIGN_APPROVAL ( #8, ( #97 ) ) ;
#156 = FACE_BOUND ( 'NONE', #76, .T. ) ;
#157 = CC_DESIGN_PERSON_AND_ORGANIZATION_ASSIGNMENT ( #174, #180, ( #48 ) ) ;
#158 = ORIENTED_EDGE ( 'NONE', *, *, #20, .F. ) ;
#159 = DIRECTION ( 'NONE',  ( 0.000000000000000000, 0.000000000000000000, 1.000000000000000000 ) ) ;
#160 = ORIENTED_EDGE ( 'NONE', *, *, #248, .T. ) ;
#161 = PERSON_AND_ORGANIZATION ( #184, #40 ) ;
#162 = EDGE_CURVE ( 'NONE', #136, #14, #21, .T. ) ;
#163 = CIRCLE ( 'NONE', #42, 1.250000000000000000 ) ;
#164 = APPROVAL_PERSON_ORGANIZATION ( #137, #131, #176 ) ;
#165 = AXIS2_PLACEMENT_3D ( 'NONE', #3, #125, #85 ) ;
#166 = FACE_OUTER_BOUND ( 'NONE', #116, .T. ) ;
#167 = PRODUCT_DEFINITION_FORMATION_WITH_SPECIFIED_SOURCE ( 'LIBOVOLNÝ', '', #249, .NOT_KNOWN. ) ;
#168 = EDGE_CURVE ( 'NONE', #39, #218, #183, .T. ) ;
#169 = DIRECTION ( 'NONE',  ( 1.000000000000000000, 0.000000000000000000, -0.000000000000000000 ) ) ;
#170 = CIRCLE ( 'NONE', #73, 0.5000000000000000000 ) ;
#171 = CYLINDRICAL_SURFACE ( 'NONE', #17, 1.250000000000000000 ) ;
#172 = CARTESIAN_POINT ( 'NONE',  ( -1.250000000000000000, 0.000000000000000000, 1.199999999999999956 ) ) ;
#173 = CARTESIAN_POINT ( 'NONE',  ( 0.000000000000000000, 0.000000000000000000, 100.0000000000000000 ) ) ;
#174 = PERSON_AND_ORGANIZATION ( #184, #40 ) ;
#175 = APPROVAL ( #216, 'NEURÈENÝ' ) ;
#176 = APPROVAL_ROLE ( '' ) ;
#177 =( GEOMETRIC_REPRESENTATION_CONTEXT ( 3 ) GLOBAL_UNCERTAINTY_ASSIGNED_CONTEXT ( ( #141 ) ) GLOBAL_UNIT_ASSIGNED_CONTEXT ( ( #150, #12, #110 ) ) REPRESENTATION_CONTEXT ( 'NONE', 'WORKASPACE' ) );
#178 = CALENDAR_DATE ( 2023, 31, 1 ) ;
#179 = APPLICATION_PROTOCOL_DEFINITION ( 'international standard', 'config_control_design', 1994, #206 ) ;
#180 = PERSON_AND_ORGANIZATION_ROLE ( 'classification_officer' ) ;
#181 = ORIENTED_EDGE ( 'NONE', *, *, #254, .F. ) ;
#182 = AXIS2_PLACEMENT_3D ( 'NONE', #81, #27, #145 ) ;
#183 = CIRCLE ( 'NONE', #236, 0.5000000000000000000 ) ;
#184 = PERSON ( 'NEURÈENÝ', 'NEURÈENÝ', 'NEURÈENÝ', ('NEURÈENÝ'), ('NEURÈENÝ'), ('NEURÈENÝ') ) ;
#185 = DIRECTION ( 'NONE',  ( 0.000000000000000000, 0.000000000000000000, 1.000000000000000000 ) ) ;
#186 = ADVANCED_FACE ( 'NONE', ( #122 ), #246, .T. ) ;
#187 = FACE_OUTER_BOUND ( 'NONE', #65, .T. ) ;
#188 = CARTESIAN_POINT ( 'NONE',  ( 0.000000000000000000, 0.000000000000000000, 100.0000000000000000 ) ) ;
#189 = LINE ( 'NONE', #7, #63 ) ;
#190 = ORIENTED_EDGE ( 'NONE', *, *, #228, .T. ) ;
#191 = DIRECTION ( 'NONE',  ( 0.000000000000000000, 0.000000000000000000, 1.000000000000000000 ) ) ;
#192 = DATE_AND_TIME ( #252, #58 ) ;
#193 = AXIS2_PLACEMENT_3D ( 'NONE', #210, #9, #33 ) ;
#194 = PLANE ( 'NONE',  #193 ) ;
#195 = SHAPE_DEFINITION_REPRESENTATION ( #154, #199 ) ;
#196 = CC_DESIGN_PERSON_AND_ORGANIZATION_ASSIGNMENT ( #161, #198, ( #249 ) ) ;
#197 = ORIENTED_EDGE ( 'NONE', *, *, #228, .F. ) ;
#198 = PERSON_AND_ORGANIZATION_ROLE ( 'design_owner' ) ;
#199 = ADVANCED_BREP_SHAPE_REPRESENTATION ( 'cf57', ( #68, #127 ), #177 ) ;
#200 = ORIENTED_EDGE ( 'NONE', *, *, #20, .T. ) ;
#201 = LOCAL_TIME ( 15, 50, 20.00000000000000000, #230 ) ;
#202 = AXIS2_PLACEMENT_3D ( 'NONE', #135, #112, #133 ) ;
#203 = EDGE_LOOP ( 'NONE', ( #67, #200, #26, #237 ) ) ;
#204 = ADVANCED_FACE ( 'NONE', ( #187 ), #31, .T. ) ;
#205 = FACE_OUTER_BOUND ( 'NONE', #23, .T. ) ;
#206 = APPLICATION_CONTEXT ( 'configuration controlled 3d designs of mechanical parts and assemblies' ) ;
#207 = DIRECTION ( 'NONE',  ( 0.000000000000000000, 0.000000000000000000, 1.000000000000000000 ) ) ;
#208 = DIRECTION ( 'NONE',  ( -1.000000000000000000, 0.000000000000000000, 0.000000000000000000 ) ) ;
#209 = DIRECTION ( 'NONE',  ( 1.000000000000000000, 0.000000000000000000, 0.000000000000000000 ) ) ;
#210 = CARTESIAN_POINT ( 'NONE',  ( 0.000000000000000000, 0.000000000000000000, 1.199999999999999956 ) ) ;
#211 = APPROVAL_PERSON_ORGANIZATION ( #53, #8, #152 ) ;
#212 = DATE_AND_TIME ( #13, #89 ) ;
#213 = EDGE_CURVE ( 'NONE', #126, #132, #163, .T. ) ;
#214 = CIRCLE ( 'NONE', #232, 0.5000000000000000000 ) ;
#215 = APPROVAL_STATUS ( 'not_yet_approved' ) ;
#216 = APPROVAL_STATUS ( 'not_yet_approved' ) ;
#217 = DIRECTION ( 'NONE',  ( 1.000000000000000000, 0.000000000000000000, 0.000000000000000000 ) ) ;
#218 = VERTEX_POINT ( 'NONE', #104 ) ;
#219 = EDGE_LOOP ( 'NONE', ( #197, #30, #47, #160 ) ) ;
#220 = CC_DESIGN_DATE_AND_TIME_ASSIGNMENT ( #91, #233, ( #97 ) ) ;
#221 = DIRECTION ( 'NONE',  ( 1.000000000000000000, 0.000000000000000000, -0.000000000000000000 ) ) ;
#222 = CYLINDRICAL_SURFACE ( 'NONE', #36, 0.5000000000000000000 ) ;
#223 = DIRECTION ( 'NONE',  ( -0.000000000000000000, -0.000000000000000000, -1.000000000000000000 ) ) ;
#224 = DIRECTION ( 'NONE',  ( -1.000000000000000000, 0.000000000000000000, 0.000000000000000000 ) ) ;
#225 = LOCAL_TIME ( 15, 50, 20.00000000000000000, #253 ) ;
#226 = DIRECTION ( 'NONE',  ( 0.000000000000000000, 0.000000000000000000, 1.000000000000000000 ) ) ;
#227 = DIRECTION ( 'NONE',  ( -0.000000000000000000, -0.000000000000000000, -1.000000000000000000 ) ) ;
#228 = EDGE_CURVE ( 'NONE', #92, #39, #189, .T. ) ;
#229 = ORIENTED_EDGE ( 'NONE', *, *, #70, .F. ) ;
#230 = COORDINATED_UNIVERSAL_TIME_OFFSET ( 1, 0, .AHEAD. ) ;
#231 = APPROVAL_STATUS ( 'not_yet_approved' ) ;
#232 = AXIS2_PLACEMENT_3D ( 'NONE', #255, #95, #120 ) ;
#233 = DATE_TIME_ROLE ( 'creation_date' ) ;
#234 = COORDINATED_UNIVERSAL_TIME_OFFSET ( 1, 0, .AHEAD. ) ;
#235 = ORIENTED_EDGE ( 'NONE', *, *, #44, .F. ) ;
#236 = AXIS2_PLACEMENT_3D ( 'NONE', #247, #207, #147 ) ;
#237 = ORIENTED_EDGE ( 'NONE', *, *, #108, .F. ) ;
#238 = ADVANCED_FACE ( 'NONE', ( #156, #106 ), #194, .T. ) ;
#239 = CARTESIAN_POINT ( 'NONE',  ( 1.250000000000000000, 1.530808498934191571E-16, 1.199999999999999956 ) ) ;
#240 = ORIENTED_EDGE ( 'NONE', *, *, #28, .T. ) ;
#241 = DIRECTION ( 'NONE',  ( -0.000000000000000000, -0.000000000000000000, -1.000000000000000000 ) ) ;
#242 = DIRECTION ( 'NONE',  ( -0.000000000000000000, -0.000000000000000000, -1.000000000000000000 ) ) ;
#243 = ORIENTED_EDGE ( 'NONE', *, *, #213, .F. ) ;
#244 = AXIS2_PLACEMENT_3D ( 'NONE', #102, #6, #148 ) ;
#245 = CARTESIAN_POINT ( 'NONE',  ( 1.250000000000000000, 1.530808498934191571E-16, 1.199999999999999956 ) ) ;
#246 = CYLINDRICAL_SURFACE ( 'NONE', #123, 1.250000000000000000 ) ;
#247 = CARTESIAN_POINT ( 'NONE',  ( 0.000000000000000000, 0.000000000000000000, 1.199999999999999956 ) ) ;
#248 = EDGE_CURVE ( 'NONE', #218, #39, #170, .T. ) ;
#249 = PRODUCT ( 'cf57', 'cf57', '', ( #90 ) ) ;
#250 = CALENDAR_DATE ( 2023, 31, 1 ) ;
#251 = APPROVAL_PERSON_ORGANIZATION ( #72, #175, #15 ) ;
#252 = CALENDAR_DATE ( 2023, 31, 1 ) ;
#253 = COORDINATED_UNIVERSAL_TIME_OFFSET ( 1, 0, .AHEAD. ) ;
#254 = EDGE_CURVE ( 'NONE', #14, #136, #94, .T. ) ;
#255 = CARTESIAN_POINT ( 'NONE',  ( 0.000000000000000000, 0.000000000000000000, 100.0000000000000000 ) ) ;
ENDSEC;
END-ISO-10303-21;
