ISO-10303-21;
HEADER;
FILE_DESCRIPTION (( 'STEP AP203' ),
    '1' );
FILE_NAME ('57ac.STEP',
    '2023-01-31T14:33:27',
    ( '' ),
    ( '' ),
    'SwSTEP 2.0',
    'SolidWorks 2019',
    '' );
FILE_SCHEMA (( 'CONFIG_CONTROL_DESIGN' ));
ENDSEC;

DATA;
#1 = CARTESIAN_POINT ( 'NONE',  ( 0.000000000000000000, 0.000000000000000000, 1.199999999999999956 ) ) ;
#2 = DESIGN_CONTEXT ( 'detailed design', #117, 'design' ) ;
#3 = VERTEX_POINT ( 'NONE', #227 ) ;
#4 = APPLICATION_CONTEXT ( 'configuration controlled 3d designs of mechanical parts and assemblies' ) ;
#5 = CIRCLE ( 'NONE', #179, 1.250000000000000000 ) ;
#6 = CARTESIAN_POINT ( 'NONE',  ( -1.250000000000000000, 0.000000000000000000, 1.199999999999999956 ) ) ;
#7 = ORIENTED_EDGE ( 'NONE', *, *, #139, .T. ) ;
#8 = APPROVAL_STATUS ( 'not_yet_approved' ) ;
#9 = MANIFOLD_SOLID_BREP ( 'Pøidat vysunutím3', #192 ) ;
#10 = DATE_TIME_ROLE ( 'creation_date' ) ;
#11 = DIRECTION ( 'NONE',  ( -0.000000000000000000, -0.000000000000000000, -1.000000000000000000 ) ) ;
#12 = AXIS2_PLACEMENT_3D ( 'NONE', #110, #211, #107 ) ;
#13 = VERTEX_POINT ( 'NONE', #41 ) ;
#14 = FACE_OUTER_BOUND ( 'NONE', #174, .T. ) ;
#15 = EDGE_CURVE ( 'NONE', #220, #3, #126, .T. ) ;
#16 = LOCAL_TIME ( 15, 33, 27.00000000000000000, #149 ) ;
#17 = APPROVAL ( #194, 'NEURÈENÝ' ) ;
#18 = ORIENTED_EDGE ( 'NONE', *, *, #15, .F. ) ;
#19 = DIRECTION ( 'NONE',  ( 0.000000000000000000, 0.000000000000000000, 1.000000000000000000 ) ) ;
#20 = CIRCLE ( 'NONE', #216, 1.250000000000000000 ) ;
#21 = MECHANICAL_CONTEXT ( 'NONE', #4, 'mechanical' ) ;
#22 = DIRECTION ( 'NONE',  ( 1.000000000000000000, 0.000000000000000000, 0.000000000000000000 ) ) ;
#23 = CALENDAR_DATE ( 2023, 31, 1 ) ;
#24 = ORIENTED_EDGE ( 'NONE', *, *, #91, .T. ) ;
#25 = EDGE_CURVE ( 'NONE', #13, #183, #138, .T. ) ;
#26 = ORIENTED_EDGE ( 'NONE', *, *, #82, .F. ) ;
#27 = CALENDAR_DATE ( 2023, 31, 1 ) ;
#28 = CARTESIAN_POINT ( 'NONE',  ( 0.000000000000000000, 0.000000000000000000, 100.0000000000000000 ) ) ;
#29 = DIRECTION ( 'NONE',  ( 1.000000000000000000, 0.000000000000000000, 0.000000000000000000 ) ) ;
#30 = PRODUCT_DEFINITION_FORMATION_WITH_SPECIFIED_SOURCE ( 'LIBOVOLNÝ', '', #80, .NOT_KNOWN. ) ;
#31 = APPROVAL ( #65, 'NEURÈENÝ' ) ;
#32 = CARTESIAN_POINT ( 'NONE',  ( 0.000000000000000000, 0.000000000000000000, 100.0000000000000000 ) ) ;
#33 = CC_DESIGN_PERSON_AND_ORGANIZATION_ASSIGNMENT ( #103, #45, ( #67 ) ) ;
#34 =( NAMED_UNIT ( * ) SI_UNIT ( $, .STERADIAN. ) SOLID_ANGLE_UNIT ( ) );
#35 = ADVANCED_FACE ( 'NONE', ( #157 ), #253, .T. ) ;
#36 = CIRCLE ( 'NONE', #240, 1.250000000000000000 ) ;
#37 = CIRCLE ( 'NONE', #207, 0.5000000000000000000 ) ;
#38 = DATE_AND_TIME ( #130, #122 ) ;
#39 = COORDINATED_UNIVERSAL_TIME_OFFSET ( 1, 0, .AHEAD. ) ;
#40 = SECURITY_CLASSIFICATION_LEVEL ( 'unclassified' ) ;
#41 = CARTESIAN_POINT ( 'NONE',  ( 0.5000000000000000000, 6.123233995736766036E-17, 1.199999999999999956 ) ) ;
#42 = DATE_AND_TIME ( #27, #16 ) ;
#43 = CIRCLE ( 'NONE', #78, 1.250000000000000000 ) ;
#44 = EDGE_CURVE ( 'NONE', #3, #206, #20, .T. ) ;
#45 = PERSON_AND_ORGANIZATION_ROLE ( 'classification_officer' ) ;
#46 = DIRECTION ( 'NONE',  ( 1.000000000000000000, 0.000000000000000000, -0.000000000000000000 ) ) ;
#47 = DIRECTION ( 'NONE',  ( -0.000000000000000000, -0.000000000000000000, -1.000000000000000000 ) ) ;
#48 = DIRECTION ( 'NONE',  ( -1.000000000000000000, 0.000000000000000000, 0.000000000000000000 ) ) ;
#49 = VECTOR ( 'NONE', #186, 1000.000000000000000 ) ;
#50 = DIRECTION ( 'NONE',  ( 0.000000000000000000, 0.000000000000000000, 1.000000000000000000 ) ) ;
#51 = ADVANCED_FACE ( 'NONE', ( #153, #89 ), #137, .T. ) ;
#52 = FACE_OUTER_BOUND ( 'NONE', #147, .T. ) ;
#53 = ORIENTED_EDGE ( 'NONE', *, *, #101, .T. ) ;
#54 = DIRECTION ( 'NONE',  ( 0.000000000000000000, 0.000000000000000000, 1.000000000000000000 ) ) ;
#55 = LOCAL_TIME ( 15, 33, 27.00000000000000000, #39 ) ;
#56 = ORIENTED_EDGE ( 'NONE', *, *, #159, .F. ) ;
#57 = CC_DESIGN_PERSON_AND_ORGANIZATION_ASSIGNMENT ( #63, #185, ( #30 ) ) ;
#58 = ORIENTED_EDGE ( 'NONE', *, *, #251, .T. ) ;
#59 = DIRECTION ( 'NONE',  ( 1.000000000000000000, 0.000000000000000000, 0.000000000000000000 ) ) ;
#60 = VERTEX_POINT ( 'NONE', #86 ) ;
#61 = ORIENTED_EDGE ( 'NONE', *, *, #139, .F. ) ;
#62 = CARTESIAN_POINT ( 'NONE',  ( 0.000000000000000000, 0.000000000000000000, 1.199999999999999956 ) ) ;
#63 = PERSON_AND_ORGANIZATION ( #133, #104 ) ;
#64 = ORIENTED_EDGE ( 'NONE', *, *, #101, .F. ) ;
#65 = APPROVAL_STATUS ( 'not_yet_approved' ) ;
#66 = DATE_AND_TIME ( #246, #248 ) ;
#67 = SECURITY_CLASSIFICATION ( '', '', #40 ) ;
#68 = PLANE ( 'NONE',  #74 ) ;
#69 = CARTESIAN_POINT ( 'NONE',  ( 0.000000000000000000, 0.000000000000000000, 0.000000000000000000 ) ) ;
#70 = CARTESIAN_POINT ( 'NONE',  ( -0.5000000000000000000, 0.000000000000000000, 100.0000000000000000 ) ) ;
#71 = ADVANCED_FACE ( 'NONE', ( #52 ), #68, .F. ) ;
#72 = AXIS2_PLACEMENT_3D ( 'NONE', #62, #143, #120 ) ;
#73 = ORIENTED_EDGE ( 'NONE', *, *, #164, .F. ) ;
#74 = AXIS2_PLACEMENT_3D ( 'NONE', #69, #231, #46 ) ;
#75 = CC_DESIGN_APPROVAL ( #17, ( #223 ) ) ;
#76 = EDGE_CURVE ( 'NONE', #140, #13, #135, .T. ) ;
#77 = ADVANCED_BREP_SHAPE_REPRESENTATION ( '57ac', ( #9, #208 ), #222 ) ;
#78 = AXIS2_PLACEMENT_3D ( 'NONE', #92, #167, #22 ) ;
#79 = DIRECTION ( 'NONE',  ( 0.000000000000000000, 0.000000000000000000, 1.000000000000000000 ) ) ;
#80 = PRODUCT ( '57ac', '57ac', '', ( #21 ) ) ;
#81 = APPROVAL_ROLE ( '' ) ;
#82 = EDGE_CURVE ( 'NONE', #183, #13, #160, .T. ) ;
#83 = DATE_TIME_ROLE ( 'classification_date' ) ;
#84 = DIRECTION ( 'NONE',  ( 1.000000000000000000, 0.000000000000000000, -0.000000000000000000 ) ) ;
#85 = COORDINATED_UNIVERSAL_TIME_OFFSET ( 1, 0, .AHEAD. ) ;
#86 = CARTESIAN_POINT ( 'NONE',  ( -0.5000000000000000000, 0.000000000000000000, 100.0000000000000000 ) ) ;
#87 = CARTESIAN_POINT ( 'NONE',  ( 0.000000000000000000, 0.000000000000000000, 100.0000000000000000 ) ) ;
#88 = AXIS2_PLACEMENT_3D ( 'NONE', #28, #136, #209 ) ;
#89 = FACE_OUTER_BOUND ( 'NONE', #196, .T. ) ;
#90 = CC_DESIGN_SECURITY_CLASSIFICATION ( #67, ( #30 ) ) ;
#91 = EDGE_CURVE ( 'NONE', #60, #183, #132, .T. ) ;
#92 = CARTESIAN_POINT ( 'NONE',  ( 0.000000000000000000, 0.000000000000000000, 1.199999999999999956 ) ) ;
#93 = DIRECTION ( 'NONE',  ( 1.000000000000000000, 0.000000000000000000, 0.000000000000000000 ) ) ;
#94 = ORIENTED_EDGE ( 'NONE', *, *, #82, .T. ) ;
#95 = ADVANCED_FACE ( 'NONE', ( #14 ), #188, .T. ) ;
#96 = APPROVAL_PERSON_ORGANIZATION ( #245, #31, #203 ) ;
#97 = PERSON_AND_ORGANIZATION_ROLE ( 'design_owner' ) ;
#98 = CARTESIAN_POINT ( 'NONE',  ( 1.250000000000000000, 1.530808498934191571E-16, 1.199999999999999956 ) ) ;
#99 = ORIENTED_EDGE ( 'NONE', *, *, #91, .F. ) ;
#100 = PERSON_AND_ORGANIZATION ( #133, #104 ) ;
#101 = EDGE_CURVE ( 'NONE', #140, #60, #37, .T. ) ;
#102 = EDGE_LOOP ( 'NONE', ( #26, #114 ) ) ;
#103 = PERSON_AND_ORGANIZATION ( #133, #104 ) ;
#104 = ORGANIZATION ( 'NEURÈENÝ', 'NEURÈENÝ', '' ) ;
#105 = CARTESIAN_POINT ( 'NONE',  ( -1.250000000000000000, 0.000000000000000000, 1.199999999999999956 ) ) ;
#106 = COORDINATED_UNIVERSAL_TIME_OFFSET ( 1, 0, .AHEAD. ) ;
#107 = DIRECTION ( 'NONE',  ( 1.000000000000000000, 0.000000000000000000, -0.000000000000000000 ) ) ;
#108 = DIRECTION ( 'NONE',  ( -0.000000000000000000, -0.000000000000000000, -1.000000000000000000 ) ) ;
#109 = ORIENTED_EDGE ( 'NONE', *, *, #219, .T. ) ;
#110 = CARTESIAN_POINT ( 'NONE',  ( 0.000000000000000000, 0.000000000000000000, 1.199999999999999956 ) ) ;
#111 = EDGE_LOOP ( 'NONE', ( #64, #125, #145, #99 ) ) ;
#112 = CARTESIAN_POINT ( 'NONE',  ( 0.000000000000000000, 0.000000000000000000, 100.0000000000000000 ) ) ;
#113 = CC_DESIGN_PERSON_AND_ORGANIZATION_ASSIGNMENT ( #152, #97, ( #80 ) ) ;
#114 = ORIENTED_EDGE ( 'NONE', *, *, #25, .F. ) ;
#115 = ADVANCED_FACE ( 'NONE', ( #116 ), #177, .T. ) ;
#116 = FACE_OUTER_BOUND ( 'NONE', #150, .T. ) ;
#117 = APPLICATION_CONTEXT ( 'configuration controlled 3d designs of mechanical parts and assemblies' ) ;
#118 = CC_DESIGN_PERSON_AND_ORGANIZATION_ASSIGNMENT ( #168, #244, ( #30 ) ) ;
#119 = ORIENTED_EDGE ( 'NONE', *, *, #159, .T. ) ;
#120 = DIRECTION ( 'NONE',  ( -1.000000000000000000, 0.000000000000000000, 0.000000000000000000 ) ) ;
#121 = ORIENTED_EDGE ( 'NONE', *, *, #219, .F. ) ;
#122 = LOCAL_TIME ( 15, 33, 27.00000000000000000, #106 ) ;
#123 = APPROVAL_DATE_TIME ( #38, #17 ) ;
#124 = CARTESIAN_POINT ( 'NONE',  ( -0.5000000000000000000, 0.000000000000000000, 1.199999999999999956 ) ) ;
#125 = ORIENTED_EDGE ( 'NONE', *, *, #76, .T. ) ;
#126 = LINE ( 'NONE', #105, #49 ) ;
#127 = FACE_OUTER_BOUND ( 'NONE', #142, .T. ) ;
#128 = CARTESIAN_POINT ( 'NONE',  ( 0.000000000000000000, 0.000000000000000000, 0.000000000000000000 ) ) ;
#129 = CIRCLE ( 'NONE', #165, 0.5000000000000000000 ) ;
#130 = CALENDAR_DATE ( 2023, 31, 1 ) ;
#131 = LOCAL_TIME ( 15, 33, 27.00000000000000000, #195 ) ;
#132 = LINE ( 'NONE', #70, #162 ) ;
#133 = PERSON ( 'NEURÈENÝ', 'NEURÈENÝ', 'NEURÈENÝ', ('NEURÈENÝ'), ('NEURÈENÝ'), ('NEURÈENÝ') ) ;
#134 = ORIENTED_EDGE ( 'NONE', *, *, #164, .T. ) ;
#135 = LINE ( 'NONE', #158, #221 ) ;
#136 = DIRECTION ( 'NONE',  ( -0.000000000000000000, -0.000000000000000000, -1.000000000000000000 ) ) ;
#137 = PLANE ( 'NONE',  #12 ) ;
#138 = CIRCLE ( 'NONE', #236, 0.5000000000000000000 ) ;
#139 = EDGE_CURVE ( 'NONE', #220, #217, #36, .T. ) ;
#140 = VERTEX_POINT ( 'NONE', #212 ) ;
#141 = DIRECTION ( 'NONE',  ( 1.000000000000000000, 0.000000000000000000, 0.000000000000000000 ) ) ;
#142 = EDGE_LOOP ( 'NONE', ( #119, #53 ) ) ;
#143 = DIRECTION ( 'NONE',  ( -0.000000000000000000, -0.000000000000000000, -1.000000000000000000 ) ) ;
#144 = ORIENTED_EDGE ( 'NONE', *, *, #251, .F. ) ;
#145 = ORIENTED_EDGE ( 'NONE', *, *, #25, .T. ) ;
#146 = AXIS2_PLACEMENT_3D ( 'NONE', #233, #11, #48 ) ;
#147 = EDGE_LOOP ( 'NONE', ( #166, #121 ) ) ;
#148 =( LENGTH_UNIT ( ) NAMED_UNIT ( * ) SI_UNIT ( .MILLI., .METRE. ) );
#149 = COORDINATED_UNIVERSAL_TIME_OFFSET ( 1, 0, .AHEAD. ) ;
#150 = EDGE_LOOP ( 'NONE', ( #73, #58, #109, #18 ) ) ;
#151 = PRODUCT_DEFINITION_SHAPE ( 'NONE', 'NONE',  #223 ) ;
#152 = PERSON_AND_ORGANIZATION ( #133, #104 ) ;
#153 = FACE_BOUND ( 'NONE', #102, .T. ) ;
#154 = CARTESIAN_POINT ( 'NONE',  ( 1.250000000000000000, 1.530808498934191571E-16, 1.199999999999999956 ) ) ;
#155 = AXIS2_PLACEMENT_3D ( 'NONE', #1, #163, #238 ) ;
#156 = AXIS2_PLACEMENT_3D ( 'NONE', #87, #173, #84 ) ;
#157 = FACE_OUTER_BOUND ( 'NONE', #111, .T. ) ;
#158 = CARTESIAN_POINT ( 'NONE',  ( 0.5000000000000000000, 6.123233995736766036E-17, 100.0000000000000000 ) ) ;
#159 = EDGE_CURVE ( 'NONE', #60, #140, #129, .T. ) ;
#160 = CIRCLE ( 'NONE', #175, 0.5000000000000000000 ) ;
#161 = DIRECTION ( 'NONE',  ( 1.000000000000000000, 0.000000000000000000, 0.000000000000000000 ) ) ;
#162 = VECTOR ( 'NONE', #108, 1000.000000000000000 ) ;
#163 = DIRECTION ( 'NONE',  ( -0.000000000000000000, -0.000000000000000000, -1.000000000000000000 ) ) ;
#164 = EDGE_CURVE ( 'NONE', #217, #220, #43, .T. ) ;
#165 = AXIS2_PLACEMENT_3D ( 'NONE', #32, #79, #59 ) ;
#166 = ORIENTED_EDGE ( 'NONE', *, *, #44, .F. ) ;
#167 = DIRECTION ( 'NONE',  ( 0.000000000000000000, 0.000000000000000000, 1.000000000000000000 ) ) ;
#168 = PERSON_AND_ORGANIZATION ( #133, #104 ) ;
#169 = CC_DESIGN_DATE_AND_TIME_ASSIGNMENT ( #182, #10, ( #223 ) ) ;
#170 = APPLICATION_PROTOCOL_DEFINITION ( 'international standard', 'config_control_design', 1994, #4 ) ;
#171 = CARTESIAN_POINT ( 'NONE',  ( 0.000000000000000000, 0.000000000000000000, 1.199999999999999956 ) ) ;
#172 = CC_DESIGN_APPROVAL ( #31, ( #67 ) ) ;
#173 = DIRECTION ( 'NONE',  ( 0.000000000000000000, 0.000000000000000000, 1.000000000000000000 ) ) ;
#174 = EDGE_LOOP ( 'NONE', ( #198, #56, #24, #94 ) ) ;
#175 = AXIS2_PLACEMENT_3D ( 'NONE', #234, #50, #29 ) ;
#176 = APPROVAL_DATE_TIME ( #66, #31 ) ;
#177 = CYLINDRICAL_SURFACE ( 'NONE', #155, 1.250000000000000000 ) ;
#178 = EDGE_LOOP ( 'NONE', ( #144, #61, #201, #243 ) ) ;
#179 = AXIS2_PLACEMENT_3D ( 'NONE', #181, #19, #93 ) ;
#180 = PERSON_AND_ORGANIZATION ( #133, #104 ) ;
#181 = CARTESIAN_POINT ( 'NONE',  ( 0.000000000000000000, 0.000000000000000000, 0.000000000000000000 ) ) ;
#182 = DATE_AND_TIME ( #23, #131 ) ;
#183 = VERTEX_POINT ( 'NONE', #124 ) ;
#184 = CALENDAR_DATE ( 2023, 31, 1 ) ;
#185 = PERSON_AND_ORGANIZATION_ROLE ( 'design_supplier' ) ;
#186 = DIRECTION ( 'NONE',  ( -0.000000000000000000, -0.000000000000000000, -1.000000000000000000 ) ) ;
#187 = PERSON_AND_ORGANIZATION_ROLE ( 'creator' ) ;
#188 = CYLINDRICAL_SURFACE ( 'NONE', #146, 0.5000000000000000000 ) ;
#189 = PRODUCT_RELATED_PRODUCT_CATEGORY ( 'detail', '', ( #80 ) ) ;
#190 = DIRECTION ( 'NONE',  ( 1.000000000000000000, 0.000000000000000000, 0.000000000000000000 ) ) ;
#191 = DIRECTION ( 'NONE',  ( 0.000000000000000000, 0.000000000000000000, 1.000000000000000000 ) ) ;
#192 = CLOSED_SHELL ( 'NONE', ( #35, #115, #200, #51, #71, #95, #242 ) ) ;
#193 = APPROVAL ( #8, 'NEURÈENÝ' ) ;
#194 = APPROVAL_STATUS ( 'not_yet_approved' ) ;
#195 = COORDINATED_UNIVERSAL_TIME_OFFSET ( 1, 0, .AHEAD. ) ;
#196 = EDGE_LOOP ( 'NONE', ( #7, #134 ) ) ;
#197 = CYLINDRICAL_SURFACE ( 'NONE', #72, 1.250000000000000000 ) ;
#198 = ORIENTED_EDGE ( 'NONE', *, *, #76, .F. ) ;
#199 = DATE_AND_TIME ( #184, #55 ) ;
#200 = ADVANCED_FACE ( 'NONE', ( #239 ), #197, .T. ) ;
#201 = ORIENTED_EDGE ( 'NONE', *, *, #15, .T. ) ;
#202 = PLANE ( 'NONE',  #156 ) ;
#203 = APPROVAL_ROLE ( '' ) ;
#204 = DIRECTION ( 'NONE',  ( 1.000000000000000000, 0.000000000000000000, 0.000000000000000000 ) ) ;
#205 = DIRECTION ( 'NONE',  ( 1.000000000000000000, 0.000000000000000000, 0.000000000000000000 ) ) ;
#206 = VERTEX_POINT ( 'NONE', #218 ) ;
#207 = AXIS2_PLACEMENT_3D ( 'NONE', #112, #237, #141 ) ;
#208 = AXIS2_PLACEMENT_3D ( 'NONE', #128, #232, #205 ) ;
#209 = DIRECTION ( 'NONE',  ( -1.000000000000000000, 0.000000000000000000, 0.000000000000000000 ) ) ;
#210 = CC_DESIGN_PERSON_AND_ORGANIZATION_ASSIGNMENT ( #180, #187, ( #223 ) ) ;
#211 = DIRECTION ( 'NONE',  ( 0.000000000000000000, 0.000000000000000000, 1.000000000000000000 ) ) ;
#212 = CARTESIAN_POINT ( 'NONE',  ( 0.5000000000000000000, 6.123233995736766036E-17, 100.0000000000000000 ) ) ;
#213 = APPROVAL_PERSON_ORGANIZATION ( #226, #193, #81 ) ;
#214 = UNCERTAINTY_MEASURE_WITH_UNIT (LENGTH_MEASURE( 1.000000000000000082E-05 ), #148, 'distance_accuracy_value', 'NONE');
#215 = CARTESIAN_POINT ( 'NONE',  ( 0.000000000000000000, 0.000000000000000000, 1.199999999999999956 ) ) ;
#216 = AXIS2_PLACEMENT_3D ( 'NONE', #235, #247, #204 ) ;
#217 = VERTEX_POINT ( 'NONE', #98 ) ;
#218 = CARTESIAN_POINT ( 'NONE',  ( 1.250000000000000000, 1.530808498934191571E-16, 0.000000000000000000 ) ) ;
#219 = EDGE_CURVE ( 'NONE', #206, #3, #5, .T. ) ;
#220 = VERTEX_POINT ( 'NONE', #6 ) ;
#221 = VECTOR ( 'NONE', #47, 1000.000000000000000 ) ;
#222 =( GEOMETRIC_REPRESENTATION_CONTEXT ( 3 ) GLOBAL_UNCERTAINTY_ASSIGNED_CONTEXT ( ( #214 ) ) GLOBAL_UNIT_ASSIGNED_CONTEXT ( ( #148, #225, #34 ) ) REPRESENTATION_CONTEXT ( 'NONE', 'WORKASPACE' ) );
#223 = PRODUCT_DEFINITION ( 'NEZNÁMÝ', '', #30, #2 ) ;
#224 = APPLICATION_PROTOCOL_DEFINITION ( 'international standard', 'config_control_design', 1994, #117 ) ;
#225 =( NAMED_UNIT ( * ) PLANE_ANGLE_UNIT ( ) SI_UNIT ( $, .RADIAN. ) );
#226 = PERSON_AND_ORGANIZATION ( #133, #104 ) ;
#227 = CARTESIAN_POINT ( 'NONE',  ( -1.250000000000000000, 0.000000000000000000, 0.000000000000000000 ) ) ;
#228 = APPROVAL_ROLE ( '' ) ;
#229 = VECTOR ( 'NONE', #250, 1000.000000000000000 ) ;
#230 = APPROVAL_DATE_TIME ( #199, #193 ) ;
#231 = DIRECTION ( 'NONE',  ( 0.000000000000000000, 0.000000000000000000, 1.000000000000000000 ) ) ;
#232 = DIRECTION ( 'NONE',  ( 0.000000000000000000, 0.000000000000000000, 1.000000000000000000 ) ) ;
#233 = CARTESIAN_POINT ( 'NONE',  ( 0.000000000000000000, 0.000000000000000000, 100.0000000000000000 ) ) ;
#234 = CARTESIAN_POINT ( 'NONE',  ( 0.000000000000000000, 0.000000000000000000, 1.199999999999999956 ) ) ;
#235 = CARTESIAN_POINT ( 'NONE',  ( 0.000000000000000000, 0.000000000000000000, 0.000000000000000000 ) ) ;
#236 = AXIS2_PLACEMENT_3D ( 'NONE', #171, #191, #190 ) ;
#237 = DIRECTION ( 'NONE',  ( 0.000000000000000000, 0.000000000000000000, 1.000000000000000000 ) ) ;
#238 = DIRECTION ( 'NONE',  ( -1.000000000000000000, 0.000000000000000000, 0.000000000000000000 ) ) ;
#239 = FACE_OUTER_BOUND ( 'NONE', #178, .T. ) ;
#240 = AXIS2_PLACEMENT_3D ( 'NONE', #215, #54, #161 ) ;
#241 = APPROVAL_PERSON_ORGANIZATION ( #100, #17, #228 ) ;
#242 = ADVANCED_FACE ( 'NONE', ( #127 ), #202, .T. ) ;
#243 = ORIENTED_EDGE ( 'NONE', *, *, #44, .T. ) ;
#244 = PERSON_AND_ORGANIZATION_ROLE ( 'creator' ) ;
#245 = PERSON_AND_ORGANIZATION ( #133, #104 ) ;
#246 = CALENDAR_DATE ( 2023, 31, 1 ) ;
#247 = DIRECTION ( 'NONE',  ( 0.000000000000000000, 0.000000000000000000, 1.000000000000000000 ) ) ;
#248 = LOCAL_TIME ( 15, 33, 27.00000000000000000, #85 ) ;
#249 = LINE ( 'NONE', #154, #229 ) ;
#250 = DIRECTION ( 'NONE',  ( -0.000000000000000000, -0.000000000000000000, -1.000000000000000000 ) ) ;
#251 = EDGE_CURVE ( 'NONE', #217, #206, #249, .T. ) ;
#252 = CC_DESIGN_APPROVAL ( #193, ( #30 ) ) ;
#253 = CYLINDRICAL_SURFACE ( 'NONE', #88, 0.5000000000000000000 ) ;
#254 = CC_DESIGN_DATE_AND_TIME_ASSIGNMENT ( #42, #83, ( #67 ) ) ;
#255 = SHAPE_DEFINITION_REPRESENTATION ( #151, #77 ) ;
ENDSEC;
END-ISO-10303-21;
