ISO-10303-21;
HEADER;
FILE_DESCRIPTION (( 'STEP AP203' ),
    '1' );
FILE_NAME ('b16a.STEP',
    '2023-01-31T14:46:31',
    ( '' ),
    ( '' ),
    'SwSTEP 2.0',
    'SolidWorks 2019',
    '' );
FILE_SCHEMA (( 'CONFIG_CONTROL_DESIGN' ));
ENDSEC;

DATA;
#1 = CARTESIAN_POINT ( 'NONE',  ( 0.000000000000000000, 0.000000000000000000, 0.000000000000000000 ) ) ;
#2 = VECTOR ( 'NONE', #96, 1000.000000000000000 ) ;
#3 = DATE_AND_TIME ( #105, #16 ) ;
#4 = ORIENTED_EDGE ( 'NONE', *, *, #171, .F. ) ;
#5 = CIRCLE ( 'NONE', #156, 0.5000000000000000000 ) ;
#6 = APPROVAL_PERSON_ORGANIZATION ( #147, #87, #64 ) ;
#7 = ORIENTED_EDGE ( 'NONE', *, *, #132, .F. ) ;
#8 = APPROVAL ( #38, 'NEURÈENÝ' ) ;
#9 = CIRCLE ( 'NONE', #14, 0.5000000000000000000 ) ;
#10 = PRODUCT_DEFINITION ( 'NEZNÁMÝ', '', #186, #161 ) ;
#11 = ADVANCED_BREP_SHAPE_REPRESENTATION ( 'b16a', ( #121, #67 ), #109 ) ;
#12 = CARTESIAN_POINT ( 'NONE',  ( 1.250000000000000000, 1.530808498934191571E-16, 1.199999999999999956 ) ) ;
#13 = CARTESIAN_POINT ( 'NONE',  ( -1.250000000000000000, 0.000000000000000000, 0.000000000000000000 ) ) ;
#14 = AXIS2_PLACEMENT_3D ( 'NONE', #196, #231, #77 ) ;
#15 = LINE ( 'NONE', #158, #2 ) ;
#16 = LOCAL_TIME ( 15, 46, 31.00000000000000000, #68 ) ;
#17 = DIRECTION ( 'NONE',  ( 1.000000000000000000, 0.000000000000000000, -0.000000000000000000 ) ) ;
#18 = CARTESIAN_POINT ( 'NONE',  ( -1.250000000000000000, 0.000000000000000000, 1.199999999999999956 ) ) ;
#19 = FACE_OUTER_BOUND ( 'NONE', #245, .T. ) ;
#20 = DATE_TIME_ROLE ( 'classification_date' ) ;
#21 = CYLINDRICAL_SURFACE ( 'NONE', #66, 0.5000000000000000000 ) ;
#22 = EDGE_LOOP ( 'NONE', ( #155, #187 ) ) ;
#23 = PERSON_AND_ORGANIZATION_ROLE ( 'classification_officer' ) ;
#24 = CIRCLE ( 'NONE', #229, 0.5000000000000000000 ) ;
#25 = DATE_AND_TIME ( #221, #42 ) ;
#26 = PERSON_AND_ORGANIZATION_ROLE ( 'design_owner' ) ;
#27 = DATE_TIME_ROLE ( 'creation_date' ) ;
#28 = AXIS2_PLACEMENT_3D ( 'NONE', #60, #85, #93 ) ;
#29 = EDGE_CURVE ( 'NONE', #212, #110, #230, .T. ) ;
#30 = AXIS2_PLACEMENT_3D ( 'NONE', #81, #162, #170 ) ;
#31 = EDGE_LOOP ( 'NONE', ( #74, #150, #184, #243 ) ) ;
#32 = ORIENTED_EDGE ( 'NONE', *, *, #62, .F. ) ;
#33 = ORIENTED_EDGE ( 'NONE', *, *, #29, .F. ) ;
#34 = CARTESIAN_POINT ( 'NONE',  ( 0.000000000000000000, 0.000000000000000000, 100.0000000000000000 ) ) ;
#35 = CARTESIAN_POINT ( 'NONE',  ( 0.000000000000000000, 0.000000000000000000, 1.199999999999999956 ) ) ;
#36 = CYLINDRICAL_SURFACE ( 'NONE', #73, 1.250000000000000000 ) ;
#37 = DIRECTION ( 'NONE',  ( 0.000000000000000000, 0.000000000000000000, 1.000000000000000000 ) ) ;
#38 = APPROVAL_STATUS ( 'not_yet_approved' ) ;
#39 = LINE ( 'NONE', #233, #108 ) ;
#40 = APPROVAL_DATE_TIME ( #25, #87 ) ;
#41 = CIRCLE ( 'NONE', #219, 1.250000000000000000 ) ;
#42 = LOCAL_TIME ( 15, 46, 31.00000000000000000, #238 ) ;
#43 = PERSON_AND_ORGANIZATION_ROLE ( 'creator' ) ;
#44 = LOCAL_TIME ( 15, 46, 31.00000000000000000, #177 ) ;
#45 = CC_DESIGN_PERSON_AND_ORGANIZATION_ASSIGNMENT ( #250, #125, ( #186 ) ) ;
#46 = EDGE_LOOP ( 'NONE', ( #4, #211, #49, #151 ) ) ;
#47 = VERTEX_POINT ( 'NONE', #13 ) ;
#48 = DIRECTION ( 'NONE',  ( -1.000000000000000000, 0.000000000000000000, 0.000000000000000000 ) ) ;
#49 = ORIENTED_EDGE ( 'NONE', *, *, #235, .T. ) ;
#50 = CC_DESIGN_DATE_AND_TIME_ASSIGNMENT ( #86, #27, ( #10 ) ) ;
#51 = PLANE ( 'NONE',  #208 ) ;
#52 = CC_DESIGN_APPROVAL ( #87, ( #186 ) ) ;
#53 = CARTESIAN_POINT ( 'NONE',  ( 0.000000000000000000, 0.000000000000000000, 1.199999999999999956 ) ) ;
#54 = EDGE_CURVE ( 'NONE', #90, #212, #69, .T. ) ;
#55 = PLANE ( 'NONE',  #70 ) ;
#56 = DIRECTION ( 'NONE',  ( 0.000000000000000000, 0.000000000000000000, 1.000000000000000000 ) ) ;
#57 = PERSON_AND_ORGANIZATION_ROLE ( 'creator' ) ;
#58 = DIRECTION ( 'NONE',  ( 1.000000000000000000, 0.000000000000000000, 0.000000000000000000 ) ) ;
#59 = CC_DESIGN_APPROVAL ( #146, ( #10 ) ) ;
#60 = CARTESIAN_POINT ( 'NONE',  ( 0.000000000000000000, 0.000000000000000000, 100.0000000000000000 ) ) ;
#61 = APPROVAL_DATE_TIME ( #234, #8 ) ;
#62 = EDGE_CURVE ( 'NONE', #169, #110, #9, .T. ) ;
#63 = DIRECTION ( 'NONE',  ( -1.000000000000000000, 0.000000000000000000, 0.000000000000000000 ) ) ;
#64 = APPROVAL_ROLE ( '' ) ;
#65 = APPROVAL_STATUS ( 'not_yet_approved' ) ;
#66 = AXIS2_PLACEMENT_3D ( 'NONE', #249, #98, #120 ) ;
#67 = AXIS2_PLACEMENT_3D ( 'NONE', #1, #203, #103 ) ;
#68 = COORDINATED_UNIVERSAL_TIME_OFFSET ( 1, 0, .AHEAD. ) ;
#69 = CIRCLE ( 'NONE', #28, 0.5000000000000000000 ) ;
#70 = AXIS2_PLACEMENT_3D ( 'NONE', #188, #159, #17 ) ;
#71 = CARTESIAN_POINT ( 'NONE',  ( 0.000000000000000000, 0.000000000000000000, 1.199999999999999956 ) ) ;
#72 = VERTEX_POINT ( 'NONE', #164 ) ;
#73 = AXIS2_PLACEMENT_3D ( 'NONE', #71, #131, #174 ) ;
#74 = ORIENTED_EDGE ( 'NONE', *, *, #101, .F. ) ;
#75 = DIRECTION ( 'NONE',  ( -0.000000000000000000, -0.000000000000000000, -1.000000000000000000 ) ) ;
#76 = VERTEX_POINT ( 'NONE', #12 ) ;
#77 = DIRECTION ( 'NONE',  ( 1.000000000000000000, 0.000000000000000000, 0.000000000000000000 ) ) ;
#78 = CARTESIAN_POINT ( 'NONE',  ( 0.000000000000000000, 0.000000000000000000, 0.000000000000000000 ) ) ;
#79 =( LENGTH_UNIT ( ) NAMED_UNIT ( * ) SI_UNIT ( .MILLI., .METRE. ) );
#80 = FACE_OUTER_BOUND ( 'NONE', #113, .T. ) ;
#81 = CARTESIAN_POINT ( 'NONE',  ( 0.000000000000000000, 0.000000000000000000, 100.0000000000000000 ) ) ;
#82 = APPLICATION_CONTEXT ( 'configuration controlled 3d designs of mechanical parts and assemblies' ) ;
#83 = CALENDAR_DATE ( 2023, 31, 1 ) ;
#84 = FACE_OUTER_BOUND ( 'NONE', #114, .T. ) ;
#85 = DIRECTION ( 'NONE',  ( 0.000000000000000000, 0.000000000000000000, 1.000000000000000000 ) ) ;
#86 = DATE_AND_TIME ( #202, #201 ) ;
#87 = APPROVAL ( #165, 'NEURÈENÝ' ) ;
#88 = ORIENTED_EDGE ( 'NONE', *, *, #173, .F. ) ;
#89 = ORIENTED_EDGE ( 'NONE', *, *, #189, .F. ) ;
#90 = VERTEX_POINT ( 'NONE', #157 ) ;
#91 = AXIS2_PLACEMENT_3D ( 'NONE', #53, #115, #236 ) ;
#92 = ORIENTED_EDGE ( 'NONE', *, *, #189, .T. ) ;
#93 = DIRECTION ( 'NONE',  ( 1.000000000000000000, 0.000000000000000000, 0.000000000000000000 ) ) ;
#94 = CC_DESIGN_PERSON_AND_ORGANIZATION_ASSIGNMENT ( #232, #57, ( #10 ) ) ;
#95 = VECTOR ( 'NONE', #122, 1000.000000000000000 ) ;
#96 = DIRECTION ( 'NONE',  ( -0.000000000000000000, -0.000000000000000000, -1.000000000000000000 ) ) ;
#97 = DIRECTION ( 'NONE',  ( 1.000000000000000000, 0.000000000000000000, 0.000000000000000000 ) ) ;
#98 = DIRECTION ( 'NONE',  ( -0.000000000000000000, -0.000000000000000000, -1.000000000000000000 ) ) ;
#99 = PLANE ( 'NONE',  #30 ) ;
#100 = COORDINATED_UNIVERSAL_TIME_OFFSET ( 1, 0, .AHEAD. ) ;
#101 = EDGE_CURVE ( 'NONE', #76, #185, #198, .T. ) ;
#102 =( NAMED_UNIT ( * ) SI_UNIT ( $, .STERADIAN. ) SOLID_ANGLE_UNIT ( ) );
#103 = DIRECTION ( 'NONE',  ( 1.000000000000000000, 0.000000000000000000, 0.000000000000000000 ) ) ;
#104 = ADVANCED_FACE ( 'NONE', ( #176 ), #137, .T. ) ;
#105 = CALENDAR_DATE ( 2023, 31, 1 ) ;
#106 = APPROVAL_PERSON_ORGANIZATION ( #217, #8, #119 ) ;
#107 = CIRCLE ( 'NONE', #246, 1.250000000000000000 ) ;
#108 = VECTOR ( 'NONE', #75, 1000.000000000000000 ) ;
#109 =( GEOMETRIC_REPRESENTATION_CONTEXT ( 3 ) GLOBAL_UNCERTAINTY_ASSIGNED_CONTEXT ( ( #133 ) ) GLOBAL_UNIT_ASSIGNED_CONTEXT ( ( #79, #129, #102 ) ) REPRESENTATION_CONTEXT ( 'NONE', 'WORKASPACE' ) );
#110 = VERTEX_POINT ( 'NONE', #214 ) ;
#111 = ORIENTED_EDGE ( 'NONE', *, *, #54, .T. ) ;
#112 = ADVANCED_FACE ( 'NONE', ( #144 ), #55, .F. ) ;
#113 = EDGE_LOOP ( 'NONE', ( #227, #130 ) ) ;
#114 = EDGE_LOOP ( 'NONE', ( #89, #88, #224, #149 ) ) ;
#115 = DIRECTION ( 'NONE',  ( 0.000000000000000000, 0.000000000000000000, 1.000000000000000000 ) ) ;
#116 = AXIS2_PLACEMENT_3D ( 'NONE', #194, #37, #117 ) ;
#117 = DIRECTION ( 'NONE',  ( 1.000000000000000000, 0.000000000000000000, 0.000000000000000000 ) ) ;
#118 = DIRECTION ( 'NONE',  ( 0.000000000000000000, 0.000000000000000000, 1.000000000000000000 ) ) ;
#119 = APPROVAL_ROLE ( '' ) ;
#120 = DIRECTION ( 'NONE',  ( -1.000000000000000000, 0.000000000000000000, 0.000000000000000000 ) ) ;
#121 = MANIFOLD_SOLID_BREP ( 'Pøidat vysunutím3', #205 ) ;
#122 = DIRECTION ( 'NONE',  ( -0.000000000000000000, -0.000000000000000000, -1.000000000000000000 ) ) ;
#123 = SECURITY_CLASSIFICATION_LEVEL ( 'unclassified' ) ;
#124 = LOCAL_TIME ( 15, 46, 31.00000000000000000, #100 ) ;
#125 = PERSON_AND_ORGANIZATION_ROLE ( 'design_supplier' ) ;
#126 = PERSON_AND_ORGANIZATION ( #253, #163 ) ;
#127 = CC_DESIGN_PERSON_AND_ORGANIZATION_ASSIGNMENT ( #237, #26, ( #182 ) ) ;
#128 = CYLINDRICAL_SURFACE ( 'NONE', #199, 1.250000000000000000 ) ;
#129 =( NAMED_UNIT ( * ) PLANE_ANGLE_UNIT ( ) SI_UNIT ( $, .RADIAN. ) );
#130 = ORIENTED_EDGE ( 'NONE', *, *, #101, .T. ) ;
#131 = DIRECTION ( 'NONE',  ( -0.000000000000000000, -0.000000000000000000, -1.000000000000000000 ) ) ;
#132 = EDGE_CURVE ( 'NONE', #110, #169, #24, .T. ) ;
#133 = UNCERTAINTY_MEASURE_WITH_UNIT (LENGTH_MEASURE( 1.000000000000000082E-05 ), #79, 'distance_accuracy_value', 'NONE');
#134 = EDGE_CURVE ( 'NONE', #72, #47, #41, .T. ) ;
#135 = EDGE_LOOP ( 'NONE', ( #152, #92, #181, #33 ) ) ;
#136 = FACE_OUTER_BOUND ( 'NONE', #46, .T. ) ;
#137 = CYLINDRICAL_SURFACE ( 'NONE', #222, 0.5000000000000000000 ) ;
#138 = DIRECTION ( 'NONE',  ( 0.000000000000000000, 0.000000000000000000, 1.000000000000000000 ) ) ;
#139 = DIRECTION ( 'NONE',  ( 1.000000000000000000, 0.000000000000000000, 0.000000000000000000 ) ) ;
#140 = APPLICATION_PROTOCOL_DEFINITION ( 'international standard', 'config_control_design', 1994, #239 ) ;
#141 = CARTESIAN_POINT ( 'NONE',  ( 0.000000000000000000, 0.000000000000000000, 100.0000000000000000 ) ) ;
#142 = CARTESIAN_POINT ( 'NONE',  ( -0.5000000000000000000, 0.000000000000000000, 100.0000000000000000 ) ) ;
#143 = SHAPE_DEFINITION_REPRESENTATION ( #248, #11 ) ;
#144 = FACE_OUTER_BOUND ( 'NONE', #22, .T. ) ;
#145 = APPLICATION_PROTOCOL_DEFINITION ( 'international standard', 'config_control_design', 1994, #82 ) ;
#146 = APPROVAL ( #65, 'NEURÈENÝ' ) ;
#147 = PERSON_AND_ORGANIZATION ( #253, #163 ) ;
#148 = EDGE_CURVE ( 'NONE', #47, #72, #107, .T. ) ;
#149 = ORIENTED_EDGE ( 'NONE', *, *, #132, .T. ) ;
#150 = ORIENTED_EDGE ( 'NONE', *, *, #171, .T. ) ;
#151 = ORIENTED_EDGE ( 'NONE', *, *, #148, .T. ) ;
#152 = ORIENTED_EDGE ( 'NONE', *, *, #54, .F. ) ;
#153 = ADVANCED_FACE ( 'NONE', ( #19 ), #99, .T. ) ;
#154 = CARTESIAN_POINT ( 'NONE',  ( 0.000000000000000000, 0.000000000000000000, 1.199999999999999956 ) ) ;
#155 = ORIENTED_EDGE ( 'NONE', *, *, #148, .F. ) ;
#156 = AXIS2_PLACEMENT_3D ( 'NONE', #141, #175, #58 ) ;
#157 = CARTESIAN_POINT ( 'NONE',  ( 0.5000000000000000000, 6.123233995736766036E-17, 100.0000000000000000 ) ) ;
#158 = CARTESIAN_POINT ( 'NONE',  ( -1.250000000000000000, 0.000000000000000000, 1.199999999999999956 ) ) ;
#159 = DIRECTION ( 'NONE',  ( 0.000000000000000000, 0.000000000000000000, 1.000000000000000000 ) ) ;
#160 = CARTESIAN_POINT ( 'NONE',  ( -0.5000000000000000000, 0.000000000000000000, 100.0000000000000000 ) ) ;
#161 = DESIGN_CONTEXT ( 'detailed design', #82, 'design' ) ;
#162 = DIRECTION ( 'NONE',  ( 0.000000000000000000, 0.000000000000000000, 1.000000000000000000 ) ) ;
#163 = ORGANIZATION ( 'NEURÈENÝ', 'NEURÈENÝ', '' ) ;
#164 = CARTESIAN_POINT ( 'NONE',  ( 1.250000000000000000, 1.530808498934191571E-16, 0.000000000000000000 ) ) ;
#165 = APPROVAL_STATUS ( 'not_yet_approved' ) ;
#166 = MECHANICAL_CONTEXT ( 'NONE', #239, 'mechanical' ) ;
#167 = ADVANCED_FACE ( 'NONE', ( #242 ), #128, .T. ) ;
#168 = CC_DESIGN_DATE_AND_TIME_ASSIGNMENT ( #3, #20, ( #183 ) ) ;
#169 = VERTEX_POINT ( 'NONE', #215 ) ;
#170 = DIRECTION ( 'NONE',  ( 1.000000000000000000, 0.000000000000000000, -0.000000000000000000 ) ) ;
#171 = EDGE_CURVE ( 'NONE', #76, #72, #218, .T. ) ;
#172 = APPROVAL_PERSON_ORGANIZATION ( #254, #146, #179 ) ;
#173 = EDGE_CURVE ( 'NONE', #212, #90, #5, .T. ) ;
#174 = DIRECTION ( 'NONE',  ( -1.000000000000000000, 0.000000000000000000, 0.000000000000000000 ) ) ;
#175 = DIRECTION ( 'NONE',  ( 0.000000000000000000, 0.000000000000000000, 1.000000000000000000 ) ) ;
#176 = FACE_OUTER_BOUND ( 'NONE', #135, .T. ) ;
#177 = COORDINATED_UNIVERSAL_TIME_OFFSET ( 1, 0, .AHEAD. ) ;
#178 = CARTESIAN_POINT ( 'NONE',  ( 1.250000000000000000, 1.530808498934191571E-16, 1.199999999999999956 ) ) ;
#179 = APPROVAL_ROLE ( '' ) ;
#180 = CALENDAR_DATE ( 2023, 31, 1 ) ;
#181 = ORIENTED_EDGE ( 'NONE', *, *, #62, .T. ) ;
#182 = PRODUCT ( 'b16a', 'b16a', '', ( #166 ) ) ;
#183 = SECURITY_CLASSIFICATION ( '', '', #123 ) ;
#184 = ORIENTED_EDGE ( 'NONE', *, *, #134, .T. ) ;
#185 = VERTEX_POINT ( 'NONE', #18 ) ;
#186 = PRODUCT_DEFINITION_FORMATION_WITH_SPECIFIED_SOURCE ( 'LIBOVOLNÝ', '', #182, .NOT_KNOWN. ) ;
#187 = ORIENTED_EDGE ( 'NONE', *, *, #134, .F. ) ;
#188 = CARTESIAN_POINT ( 'NONE',  ( 0.000000000000000000, 0.000000000000000000, 0.000000000000000000 ) ) ;
#189 = EDGE_CURVE ( 'NONE', #90, #169, #39, .T. ) ;
#190 = DIRECTION ( 'NONE',  ( -0.000000000000000000, -0.000000000000000000, -1.000000000000000000 ) ) ;
#191 = CC_DESIGN_APPROVAL ( #8, ( #183 ) ) ;
#192 = DIRECTION ( 'NONE',  ( 1.000000000000000000, 0.000000000000000000, -0.000000000000000000 ) ) ;
#193 = DIRECTION ( 'NONE',  ( 1.000000000000000000, 0.000000000000000000, 0.000000000000000000 ) ) ;
#194 = CARTESIAN_POINT ( 'NONE',  ( 0.000000000000000000, 0.000000000000000000, 1.199999999999999956 ) ) ;
#195 = PRODUCT_RELATED_PRODUCT_CATEGORY ( 'detail', '', ( #182 ) ) ;
#196 = CARTESIAN_POINT ( 'NONE',  ( 0.000000000000000000, 0.000000000000000000, 1.199999999999999956 ) ) ;
#197 = PERSON_AND_ORGANIZATION ( #253, #163 ) ;
#198 = CIRCLE ( 'NONE', #91, 1.250000000000000000 ) ;
#199 = AXIS2_PLACEMENT_3D ( 'NONE', #244, #226, #48 ) ;
#200 = APPROVAL_DATE_TIME ( #252, #146 ) ;
#201 = LOCAL_TIME ( 15, 46, 31.00000000000000000, #220 ) ;
#202 = CALENDAR_DATE ( 2023, 31, 1 ) ;
#203 = DIRECTION ( 'NONE',  ( 0.000000000000000000, 0.000000000000000000, 1.000000000000000000 ) ) ;
#204 = CC_DESIGN_PERSON_AND_ORGANIZATION_ASSIGNMENT ( #197, #43, ( #186 ) ) ;
#205 = CLOSED_SHELL ( 'NONE', ( #104, #167, #223, #210, #112, #206, #153 ) ) ;
#206 = ADVANCED_FACE ( 'NONE', ( #84 ), #21, .T. ) ;
#207 = VECTOR ( 'NONE', #251, 1000.000000000000000 ) ;
#208 = AXIS2_PLACEMENT_3D ( 'NONE', #154, #138, #192 ) ;
#209 = CC_DESIGN_SECURITY_CLASSIFICATION ( #183, ( #186 ) ) ;
#210 = ADVANCED_FACE ( 'NONE', ( #228, #80 ), #51, .T. ) ;
#211 = ORIENTED_EDGE ( 'NONE', *, *, #213, .F. ) ;
#212 = VERTEX_POINT ( 'NONE', #160 ) ;
#213 = EDGE_CURVE ( 'NONE', #185, #76, #225, .T. ) ;
#214 = CARTESIAN_POINT ( 'NONE',  ( -0.5000000000000000000, 0.000000000000000000, 1.199999999999999956 ) ) ;
#215 = CARTESIAN_POINT ( 'NONE',  ( 0.5000000000000000000, 6.123233995736766036E-17, 1.199999999999999956 ) ) ;
#216 = CARTESIAN_POINT ( 'NONE',  ( 0.000000000000000000, 0.000000000000000000, 0.000000000000000000 ) ) ;
#217 = PERSON_AND_ORGANIZATION ( #253, #163 ) ;
#218 = LINE ( 'NONE', #178, #207 ) ;
#219 = AXIS2_PLACEMENT_3D ( 'NONE', #78, #56, #139 ) ;
#220 = COORDINATED_UNIVERSAL_TIME_OFFSET ( 1, 0, .AHEAD. ) ;
#221 = CALENDAR_DATE ( 2023, 31, 1 ) ;
#222 = AXIS2_PLACEMENT_3D ( 'NONE', #34, #190, #63 ) ;
#223 = ADVANCED_FACE ( 'NONE', ( #136 ), #36, .T. ) ;
#224 = ORIENTED_EDGE ( 'NONE', *, *, #29, .T. ) ;
#225 = CIRCLE ( 'NONE', #116, 1.250000000000000000 ) ;
#226 = DIRECTION ( 'NONE',  ( -0.000000000000000000, -0.000000000000000000, -1.000000000000000000 ) ) ;
#227 = ORIENTED_EDGE ( 'NONE', *, *, #213, .T. ) ;
#228 = FACE_BOUND ( 'NONE', #241, .T. ) ;
#229 = AXIS2_PLACEMENT_3D ( 'NONE', #35, #247, #97 ) ;
#230 = LINE ( 'NONE', #142, #95 ) ;
#231 = DIRECTION ( 'NONE',  ( 0.000000000000000000, 0.000000000000000000, 1.000000000000000000 ) ) ;
#232 = PERSON_AND_ORGANIZATION ( #253, #163 ) ;
#233 = CARTESIAN_POINT ( 'NONE',  ( 0.5000000000000000000, 6.123233995736766036E-17, 100.0000000000000000 ) ) ;
#234 = DATE_AND_TIME ( #83, #124 ) ;
#235 = EDGE_CURVE ( 'NONE', #185, #47, #15, .T. ) ;
#236 = DIRECTION ( 'NONE',  ( 1.000000000000000000, 0.000000000000000000, 0.000000000000000000 ) ) ;
#237 = PERSON_AND_ORGANIZATION ( #253, #163 ) ;
#238 = COORDINATED_UNIVERSAL_TIME_OFFSET ( 1, 0, .AHEAD. ) ;
#239 = APPLICATION_CONTEXT ( 'configuration controlled 3d designs of mechanical parts and assemblies' ) ;
#240 = ORIENTED_EDGE ( 'NONE', *, *, #173, .T. ) ;
#241 = EDGE_LOOP ( 'NONE', ( #7, #32 ) ) ;
#242 = FACE_OUTER_BOUND ( 'NONE', #31, .T. ) ;
#243 = ORIENTED_EDGE ( 'NONE', *, *, #235, .F. ) ;
#244 = CARTESIAN_POINT ( 'NONE',  ( 0.000000000000000000, 0.000000000000000000, 1.199999999999999956 ) ) ;
#245 = EDGE_LOOP ( 'NONE', ( #240, #111 ) ) ;
#246 = AXIS2_PLACEMENT_3D ( 'NONE', #216, #118, #193 ) ;
#247 = DIRECTION ( 'NONE',  ( 0.000000000000000000, 0.000000000000000000, 1.000000000000000000 ) ) ;
#248 = PRODUCT_DEFINITION_SHAPE ( 'NONE', 'NONE',  #10 ) ;
#249 = CARTESIAN_POINT ( 'NONE',  ( 0.000000000000000000, 0.000000000000000000, 100.0000000000000000 ) ) ;
#250 = PERSON_AND_ORGANIZATION ( #253, #163 ) ;
#251 = DIRECTION ( 'NONE',  ( -0.000000000000000000, -0.000000000000000000, -1.000000000000000000 ) ) ;
#252 = DATE_AND_TIME ( #180, #44 ) ;
#253 = PERSON ( 'NEURÈENÝ', 'NEURÈENÝ', 'NEURÈENÝ', ('NEURÈENÝ'), ('NEURÈENÝ'), ('NEURÈENÝ') ) ;
#254 = PERSON_AND_ORGANIZATION ( #253, #163 ) ;
#255 = CC_DESIGN_PERSON_AND_ORGANIZATION_ASSIGNMENT ( #126, #23, ( #183 ) ) ;
ENDSEC;
END-ISO-10303-21;
