ISO-10303-21;
HEADER;
FILE_DESCRIPTION (( 'STEP AP203' ),
    '1' );
FILE_NAME ('7868.STEP',
    '2023-02-13T10:18:30',
    ( '' ),
    ( '' ),
    'SwSTEP 2.0',
    'SolidWorks 2019',
    '' );
FILE_SCHEMA (( 'CONFIG_CONTROL_DESIGN' ));
ENDSEC;

DATA;
#1 = CIRCLE ( 'NONE', #13, 6.250000000000000000 ) ;
#2 = APPROVAL_ROLE ( '' ) ;
#3 = APPROVAL_DATE_TIME ( #135, #191 ) ;
#4 = COORDINATED_UNIVERSAL_TIME_OFFSET ( 1, 0, .AHEAD. ) ;
#5 = EDGE_CURVE ( 'NONE', #221, #33, #216, .T. ) ;
#6 = AXIS2_PLACEMENT_3D ( 'NONE', #250, #110, #71 ) ;
#7 = CARTESIAN_POINT ( 'NONE',  ( 0.000000000000000000, 0.000000000000000000, 7.000000000000000000 ) ) ;
#8 = APPROVAL_PERSON_ORGANIZATION ( #101, #191, #240 ) ;
#9 = APPLICATION_CONTEXT ( 'configuration controlled 3d designs of mechanical parts and assemblies' ) ;
#10 = ORIENTED_EDGE ( 'NONE', *, *, #120, .T. ) ;
#11 = APPROVAL_STATUS ( 'not_yet_approved' ) ;
#12 = ORIENTED_EDGE ( 'NONE', *, *, #120, .F. ) ;
#13 = AXIS2_PLACEMENT_3D ( 'NONE', #131, #93, #215 ) ;
#14 = DIRECTION ( 'NONE',  ( -0.000000000000000000, -0.000000000000000000, -1.000000000000000000 ) ) ;
#15 = CIRCLE ( 'NONE', #129, 6.250000000000000000 ) ;
#16 = ORIENTED_EDGE ( 'NONE', *, *, #227, .F. ) ;
#17 = PERSON_AND_ORGANIZATION_ROLE ( 'design_owner' ) ;
#18 = PERSON_AND_ORGANIZATION_ROLE ( 'creator' ) ;
#19 = DIRECTION ( 'NONE',  ( 1.000000000000000000, 0.000000000000000000, 0.000000000000000000 ) ) ;
#20 = ADVANCED_FACE ( 'NONE', ( #128 ), #130, .T. ) ;
#21 = VERTEX_POINT ( 'NONE', #155 ) ;
#22 = VECTOR ( 'NONE', #97, 1000.000000000000000 ) ;
#23 = CARTESIAN_POINT ( 'NONE',  ( -6.250000000000000000, 0.000000000000000000, 160.0000000000000000 ) ) ;
#24 = CARTESIAN_POINT ( 'NONE',  ( -9.000000000000000000, 0.000000000000000000, 0.000000000000000000 ) ) ;
#25 = PERSON_AND_ORGANIZATION_ROLE ( 'design_supplier' ) ;
#26 = ADVANCED_FACE ( 'NONE', ( #108 ), #69, .F. ) ;
#27 = DIRECTION ( 'NONE',  ( -1.000000000000000000, 0.000000000000000000, 0.000000000000000000 ) ) ;
#28 = AXIS2_PLACEMENT_3D ( 'NONE', #63, #244, #230 ) ;
#29 = FACE_BOUND ( 'NONE', #78, .T. ) ;
#30 = CC_DESIGN_DATE_AND_TIME_ASSIGNMENT ( #232, #47, ( #85 ) ) ;
#31 = CARTESIAN_POINT ( 'NONE',  ( -6.250000000000000000, 0.000000000000000000, 160.0000000000000000 ) ) ;
#32 = CYLINDRICAL_SURFACE ( 'NONE', #177, 6.250000000000000000 ) ;
#33 = VERTEX_POINT ( 'NONE', #80 ) ;
#34 = DIRECTION ( 'NONE',  ( -0.000000000000000000, -0.000000000000000000, -1.000000000000000000 ) ) ;
#35 = EDGE_CURVE ( 'NONE', #236, #21, #187, .T. ) ;
#36 =( NAMED_UNIT ( * ) PLANE_ANGLE_UNIT ( ) SI_UNIT ( $, .RADIAN. ) );
#37 = CARTESIAN_POINT ( 'NONE',  ( 0.000000000000000000, 0.000000000000000000, 160.0000000000000000 ) ) ;
#38 = DATE_AND_TIME ( #220, #153 ) ;
#39 = CC_DESIGN_APPROVAL ( #151, ( #85 ) ) ;
#40 = APPROVAL_DATE_TIME ( #134, #151 ) ;
#41 = PERSON_AND_ORGANIZATION ( #103, #75 ) ;
#42 = EDGE_CURVE ( 'NONE', #221, #236, #15, .T. ) ;
#43 = CYLINDRICAL_SURFACE ( 'NONE', #140, 6.250000000000000000 ) ;
#44 = CARTESIAN_POINT ( 'NONE',  ( 0.000000000000000000, 0.000000000000000000, 7.000000000000000000 ) ) ;
#45 = CARTESIAN_POINT ( 'NONE',  ( 0.000000000000000000, 0.000000000000000000, 0.000000000000000000 ) ) ;
#46 = MANIFOLD_SOLID_BREP ( 'Pøidat vysunutím3', #219 ) ;
#47 = DATE_TIME_ROLE ( 'classification_date' ) ;
#48 = DIRECTION ( 'NONE',  ( -0.000000000000000000, -0.000000000000000000, -1.000000000000000000 ) ) ;
#49 = CARTESIAN_POINT ( 'NONE',  ( 6.250000000000000000, 7.654042494670957606E-16, 160.0000000000000000 ) ) ;
#50 = ORIENTED_EDGE ( 'NONE', *, *, #5, .F. ) ;
#51 = AXIS2_PLACEMENT_3D ( 'NONE', #7, #86, #170 ) ;
#52 = LINE ( 'NONE', #91, #231 ) ;
#53 = ORIENTED_EDGE ( 'NONE', *, *, #70, .T. ) ;
#54 = CC_DESIGN_PERSON_AND_ORGANIZATION_ASSIGNMENT ( #41, #17, ( #222 ) ) ;
#55 = VERTEX_POINT ( 'NONE', #169 ) ;
#56 = ORIENTED_EDGE ( 'NONE', *, *, #42, .T. ) ;
#57 = EDGE_CURVE ( 'NONE', #55, #68, #144, .T. ) ;
#58 = APPROVAL_DATE_TIME ( #38, #148 ) ;
#59 = DIRECTION ( 'NONE',  ( -0.000000000000000000, -0.000000000000000000, -1.000000000000000000 ) ) ;
#60 = PERSON_AND_ORGANIZATION ( #103, #75 ) ;
#61 = ADVANCED_FACE ( 'NONE', ( #184 ), #181, .T. ) ;
#62 = AXIS2_PLACEMENT_3D ( 'NONE', #198, #137, #203 ) ;
#63 = CARTESIAN_POINT ( 'NONE',  ( 0.000000000000000000, 0.000000000000000000, 7.000000000000000000 ) ) ;
#64 = CC_DESIGN_PERSON_AND_ORGANIZATION_ASSIGNMENT ( #186, #199, ( #85 ) ) ;
#65 = DIRECTION ( 'NONE',  ( 0.000000000000000000, 0.000000000000000000, 1.000000000000000000 ) ) ;
#66 = DIRECTION ( 'NONE',  ( 1.000000000000000000, 0.000000000000000000, 0.000000000000000000 ) ) ;
#67 = CC_DESIGN_SECURITY_CLASSIFICATION ( #85, ( #94 ) ) ;
#68 = VERTEX_POINT ( 'NONE', #24 ) ;
#69 = PLANE ( 'NONE',  #62 ) ;
#70 = EDGE_CURVE ( 'NONE', #154, #55, #247, .T. ) ;
#71 = DIRECTION ( 'NONE',  ( -1.000000000000000000, 0.000000000000000000, 0.000000000000000000 ) ) ;
#72 = AXIS2_PLACEMENT_3D ( 'NONE', #174, #65, #145 ) ;
#73 = CARTESIAN_POINT ( 'NONE',  ( 9.000000000000000000, 1.102182119232617714E-15, 0.000000000000000000 ) ) ;
#74 = ORIENTED_EDGE ( 'NONE', *, *, #200, .F. ) ;
#75 = ORGANIZATION ( 'NEURÈENÝ', 'NEURÈENÝ', '' ) ;
#76 = ORIENTED_EDGE ( 'NONE', *, *, #109, .T. ) ;
#77 = CC_DESIGN_PERSON_AND_ORGANIZATION_ASSIGNMENT ( #122, #25, ( #94 ) ) ;
#78 = EDGE_LOOP ( 'NONE', ( #118, #12 ) ) ;
#79 = COORDINATED_UNIVERSAL_TIME_OFFSET ( 1, 0, .AHEAD. ) ;
#80 = CARTESIAN_POINT ( 'NONE',  ( 6.250000000000000000, 7.654042494670957606E-16, 7.000000000000000000 ) ) ;
#81 = DIRECTION ( 'NONE',  ( -0.000000000000000000, -0.000000000000000000, -1.000000000000000000 ) ) ;
#82 = FACE_OUTER_BOUND ( 'NONE', #214, .T. ) ;
#83 = AXIS2_PLACEMENT_3D ( 'NONE', #209, #189, #149 ) ;
#84 = DIRECTION ( 'NONE',  ( 0.000000000000000000, 0.000000000000000000, 1.000000000000000000 ) ) ;
#85 = SECURITY_CLASSIFICATION ( '', '', #115 ) ;
#86 = DIRECTION ( 'NONE',  ( 0.000000000000000000, 0.000000000000000000, 1.000000000000000000 ) ) ;
#87 = CC_DESIGN_PERSON_AND_ORGANIZATION_ASSIGNMENT ( #60, #18, ( #175 ) ) ;
#88 = CARTESIAN_POINT ( 'NONE',  ( 0.000000000000000000, 0.000000000000000000, 0.000000000000000000 ) ) ;
#89 = APPROVAL_ROLE ( '' ) ;
#90 = ORIENTED_EDGE ( 'NONE', *, *, #227, .T. ) ;
#91 = CARTESIAN_POINT ( 'NONE',  ( 9.000000000000000000, 1.102182119232617714E-15, 7.000000000000000000 ) ) ;
#92 = ORIENTED_EDGE ( 'NONE', *, *, #124, .F. ) ;
#93 = DIRECTION ( 'NONE',  ( 0.000000000000000000, 0.000000000000000000, 1.000000000000000000 ) ) ;
#94 = PRODUCT_DEFINITION_FORMATION_WITH_SPECIFIED_SOURCE ( 'LIBOVOLNÝ', '', #222, .NOT_KNOWN. ) ;
#95 = APPROVAL_STATUS ( 'not_yet_approved' ) ;
#96 = DATE_AND_TIME ( #141, #229 ) ;
#97 = DIRECTION ( 'NONE',  ( -0.000000000000000000, -0.000000000000000000, -1.000000000000000000 ) ) ;
#98 = PERSON_AND_ORGANIZATION ( #103, #75 ) ;
#99 = CARTESIAN_POINT ( 'NONE',  ( 0.000000000000000000, 0.000000000000000000, 160.0000000000000000 ) ) ;
#100 = ADVANCED_FACE ( 'NONE', ( #29, #82 ), #207, .T. ) ;
#101 = PERSON_AND_ORGANIZATION ( #103, #75 ) ;
#102 = PRODUCT_RELATED_PRODUCT_CATEGORY ( 'detail', '', ( #222 ) ) ;
#103 = PERSON ( 'NEURÈENÝ', 'NEURÈENÝ', 'NEURÈENÝ', ('NEURÈENÝ'), ('NEURÈENÝ'), ('NEURÈENÝ') ) ;
#104 = CIRCLE ( 'NONE', #28, 6.250000000000000000 ) ;
#105 = CIRCLE ( 'NONE', #121, 9.000000000000000000 ) ;
#106 = CARTESIAN_POINT ( 'NONE',  ( 0.000000000000000000, 0.000000000000000000, 160.0000000000000000 ) ) ;
#107 = DIRECTION ( 'NONE',  ( -1.000000000000000000, 0.000000000000000000, 0.000000000000000000 ) ) ;
#108 = FACE_OUTER_BOUND ( 'NONE', #252, .T. ) ;
#109 = EDGE_CURVE ( 'NONE', #239, #68, #188, .T. ) ;
#110 = DIRECTION ( 'NONE',  ( -0.000000000000000000, -0.000000000000000000, -1.000000000000000000 ) ) ;
#111 = EDGE_LOOP ( 'NONE', ( #74, #92, #166, #136 ) ) ;
#112 = DIRECTION ( 'NONE',  ( 1.000000000000000000, 0.000000000000000000, -0.000000000000000000 ) ) ;
#113 = ADVANCED_FACE ( 'NONE', ( #150 ), #43, .T. ) ;
#114 = DIRECTION ( 'NONE',  ( 0.000000000000000000, 0.000000000000000000, 1.000000000000000000 ) ) ;
#115 = SECURITY_CLASSIFICATION_LEVEL ( 'unclassified' ) ;
#116 = CC_DESIGN_APPROVAL ( #191, ( #175 ) ) ;
#117 = APPLICATION_PROTOCOL_DEFINITION ( 'international standard', 'config_control_design', 1994, #212 ) ;
#118 = ORIENTED_EDGE ( 'NONE', *, *, #161, .F. ) ;
#119 = COORDINATED_UNIVERSAL_TIME_OFFSET ( 1, 0, .AHEAD. ) ;
#120 = EDGE_CURVE ( 'NONE', #33, #21, #104, .T. ) ;
#121 = AXIS2_PLACEMENT_3D ( 'NONE', #45, #147, #208 ) ;
#122 = PERSON_AND_ORGANIZATION ( #103, #75 ) ;
#123 = DIRECTION ( 'NONE',  ( 0.000000000000000000, 0.000000000000000000, 1.000000000000000000 ) ) ;
#124 = EDGE_CURVE ( 'NONE', #55, #154, #142, .T. ) ;
#125 = CARTESIAN_POINT ( 'NONE',  ( 0.000000000000000000, 0.000000000000000000, 160.0000000000000000 ) ) ;
#126 = AXIS2_PLACEMENT_3D ( 'NONE', #253, #157, #235 ) ;
#127 = CYLINDRICAL_SURFACE ( 'NONE', #6, 9.000000000000000000 ) ;
#128 = FACE_OUTER_BOUND ( 'NONE', #225, .T. ) ;
#129 = AXIS2_PLACEMENT_3D ( 'NONE', #99, #123, #19 ) ;
#130 = PLANE ( 'NONE',  #182 ) ;
#131 = CARTESIAN_POINT ( 'NONE',  ( 0.000000000000000000, 0.000000000000000000, 160.0000000000000000 ) ) ;
#132 = EDGE_LOOP ( 'NONE', ( #249, #176, #76, #251 ) ) ;
#133 = EDGE_CURVE ( 'NONE', #68, #239, #105, .T. ) ;
#134 = DATE_AND_TIME ( #223, #143 ) ;
#135 = DATE_AND_TIME ( #201, #255 ) ;
#136 = ORIENTED_EDGE ( 'NONE', *, *, #133, .T. ) ;
#137 = DIRECTION ( 'NONE',  ( 0.000000000000000000, 0.000000000000000000, 1.000000000000000000 ) ) ;
#138 = CIRCLE ( 'NONE', #126, 6.250000000000000000 ) ;
#139 = PERSON_AND_ORGANIZATION_ROLE ( 'creator' ) ;
#140 = AXIS2_PLACEMENT_3D ( 'NONE', #125, #171, #27 ) ;
#141 = CALENDAR_DATE ( 2023, 13, 2 ) ;
#142 = CIRCLE ( 'NONE', #146, 9.000000000000000000 ) ;
#143 = LOCAL_TIME ( 11, 18, 30.00000000000000000, #156 ) ;
#144 = LINE ( 'NONE', #226, #22 ) ;
#145 = DIRECTION ( 'NONE',  ( 1.000000000000000000, 0.000000000000000000, 0.000000000000000000 ) ) ;
#146 = AXIS2_PLACEMENT_3D ( 'NONE', #44, #84, #245 ) ;
#147 = DIRECTION ( 'NONE',  ( 0.000000000000000000, 0.000000000000000000, 1.000000000000000000 ) ) ;
#148 = APPROVAL ( #183, 'NEURÈENÝ' ) ;
#149 = DIRECTION ( 'NONE',  ( 1.000000000000000000, 0.000000000000000000, 0.000000000000000000 ) ) ;
#150 = FACE_OUTER_BOUND ( 'NONE', #158, .T. ) ;
#151 = APPROVAL ( #11, 'NEURÈENÝ' ) ;
#152 = CALENDAR_DATE ( 2023, 13, 2 ) ;
#153 = LOCAL_TIME ( 11, 18, 30.00000000000000000, #79 ) ;
#154 = VERTEX_POINT ( 'NONE', #194 ) ;
#155 = CARTESIAN_POINT ( 'NONE',  ( -6.250000000000000000, 0.000000000000000000, 7.000000000000000000 ) ) ;
#156 = COORDINATED_UNIVERSAL_TIME_OFFSET ( 1, 0, .AHEAD. ) ;
#157 = DIRECTION ( 'NONE',  ( 0.000000000000000000, 0.000000000000000000, 1.000000000000000000 ) ) ;
#158 = EDGE_LOOP ( 'NONE', ( #160, #179, #10, #234 ) ) ;
#159 =( LENGTH_UNIT ( ) NAMED_UNIT ( * ) SI_UNIT ( .MILLI., .METRE. ) );
#160 = ORIENTED_EDGE ( 'NONE', *, *, #42, .F. ) ;
#161 = EDGE_CURVE ( 'NONE', #21, #33, #138, .T. ) ;
#162 =( NAMED_UNIT ( * ) SI_UNIT ( $, .STERADIAN. ) SOLID_ANGLE_UNIT ( ) );
#163 = EDGE_LOOP ( 'NONE', ( #50, #16, #254, #242 ) ) ;
#164 = CC_DESIGN_PERSON_AND_ORGANIZATION_ASSIGNMENT ( #228, #139, ( #94 ) ) ;
#165 = APPROVAL_PERSON_ORGANIZATION ( #193, #151, #89 ) ;
#166 = ORIENTED_EDGE ( 'NONE', *, *, #57, .T. ) ;
#167 = CARTESIAN_POINT ( 'NONE',  ( 0.000000000000000000, 0.000000000000000000, 7.000000000000000000 ) ) ;
#168 = SHAPE_DEFINITION_REPRESENTATION ( #192, #180 ) ;
#169 = CARTESIAN_POINT ( 'NONE',  ( -9.000000000000000000, 0.000000000000000000, 7.000000000000000000 ) ) ;
#170 = DIRECTION ( 'NONE',  ( 1.000000000000000000, 0.000000000000000000, -0.000000000000000000 ) ) ;
#171 = DIRECTION ( 'NONE',  ( -0.000000000000000000, -0.000000000000000000, -1.000000000000000000 ) ) ;
#172 = AXIS2_PLACEMENT_3D ( 'NONE', #167, #59, #205 ) ;
#173 = LOCAL_TIME ( 11, 18, 30.00000000000000000, #4 ) ;
#174 = CARTESIAN_POINT ( 'NONE',  ( 0.000000000000000000, 0.000000000000000000, 0.000000000000000000 ) ) ;
#175 = PRODUCT_DEFINITION ( 'NEZNÁMÝ', '', #94, #241 ) ;
#176 = ORIENTED_EDGE ( 'NONE', *, *, #200, .T. ) ;
#177 = AXIS2_PLACEMENT_3D ( 'NONE', #106, #14, #107 ) ;
#178 = FACE_OUTER_BOUND ( 'NONE', #163, .T. ) ;
#179 = ORIENTED_EDGE ( 'NONE', *, *, #5, .T. ) ;
#180 = ADVANCED_BREP_SHAPE_REPRESENTATION ( '7868', ( #46, #210 ), #190 ) ;
#181 = CYLINDRICAL_SURFACE ( 'NONE', #172, 9.000000000000000000 ) ;
#182 = AXIS2_PLACEMENT_3D ( 'NONE', #37, #114, #112 ) ;
#183 = APPROVAL_STATUS ( 'not_yet_approved' ) ;
#184 = FACE_OUTER_BOUND ( 'NONE', #111, .T. ) ;
#185 = COORDINATED_UNIVERSAL_TIME_OFFSET ( 1, 0, .AHEAD. ) ;
#186 = PERSON_AND_ORGANIZATION ( #103, #75 ) ;
#187 = LINE ( 'NONE', #23, #213 ) ;
#188 = CIRCLE ( 'NONE', #72, 9.000000000000000000 ) ;
#189 = DIRECTION ( 'NONE',  ( 0.000000000000000000, 0.000000000000000000, 1.000000000000000000 ) ) ;
#190 =( GEOMETRIC_REPRESENTATION_CONTEXT ( 3 ) GLOBAL_UNCERTAINTY_ASSIGNED_CONTEXT ( ( #224 ) ) GLOBAL_UNIT_ASSIGNED_CONTEXT ( ( #159, #36, #162 ) ) REPRESENTATION_CONTEXT ( 'NONE', 'WORKASPACE' ) );
#191 = APPROVAL ( #95, 'NEURÈENÝ' ) ;
#192 = PRODUCT_DEFINITION_SHAPE ( 'NONE', 'NONE',  #175 ) ;
#193 = PERSON_AND_ORGANIZATION ( #103, #75 ) ;
#194 = CARTESIAN_POINT ( 'NONE',  ( 9.000000000000000000, 1.102182119232617714E-15, 7.000000000000000000 ) ) ;
#195 = ORIENTED_EDGE ( 'NONE', *, *, #109, .F. ) ;
#196 = CC_DESIGN_DATE_AND_TIME_ASSIGNMENT ( #96, #202, ( #175 ) ) ;
#197 = CARTESIAN_POINT ( 'NONE',  ( 6.250000000000000000, 7.654042494670957606E-16, 160.0000000000000000 ) ) ;
#198 = CARTESIAN_POINT ( 'NONE',  ( 0.000000000000000000, 0.000000000000000000, 0.000000000000000000 ) ) ;
#199 = PERSON_AND_ORGANIZATION_ROLE ( 'classification_officer' ) ;
#200 = EDGE_CURVE ( 'NONE', #154, #239, #52, .T. ) ;
#201 = CALENDAR_DATE ( 2023, 13, 2 ) ;
#202 = DATE_TIME_ROLE ( 'creation_date' ) ;
#203 = DIRECTION ( 'NONE',  ( 1.000000000000000000, 0.000000000000000000, -0.000000000000000000 ) ) ;
#204 = VECTOR ( 'NONE', #34, 1000.000000000000000 ) ;
#205 = DIRECTION ( 'NONE',  ( -1.000000000000000000, 0.000000000000000000, 0.000000000000000000 ) ) ;
#206 = APPROVAL_PERSON_ORGANIZATION ( #98, #148, #2 ) ;
#207 = PLANE ( 'NONE',  #51 ) ;
#208 = DIRECTION ( 'NONE',  ( 1.000000000000000000, 0.000000000000000000, 0.000000000000000000 ) ) ;
#209 = CARTESIAN_POINT ( 'NONE',  ( 0.000000000000000000, 0.000000000000000000, 7.000000000000000000 ) ) ;
#210 = AXIS2_PLACEMENT_3D ( 'NONE', #88, #248, #66 ) ;
#211 = APPLICATION_PROTOCOL_DEFINITION ( 'international standard', 'config_control_design', 1994, #9 ) ;
#212 = APPLICATION_CONTEXT ( 'configuration controlled 3d designs of mechanical parts and assemblies' ) ;
#213 = VECTOR ( 'NONE', #81, 1000.000000000000000 ) ;
#214 = EDGE_LOOP ( 'NONE', ( #218, #53 ) ) ;
#215 = DIRECTION ( 'NONE',  ( 1.000000000000000000, 0.000000000000000000, 0.000000000000000000 ) ) ;
#216 = LINE ( 'NONE', #49, #204 ) ;
#217 = FACE_OUTER_BOUND ( 'NONE', #132, .T. ) ;
#218 = ORIENTED_EDGE ( 'NONE', *, *, #124, .T. ) ;
#219 = CLOSED_SHELL ( 'NONE', ( #113, #237, #61, #100, #26, #246, #20 ) ) ;
#220 = CALENDAR_DATE ( 2023, 13, 2 ) ;
#221 = VERTEX_POINT ( 'NONE', #197 ) ;
#222 = PRODUCT ( '7868', '7868', '', ( #238 ) ) ;
#223 = CALENDAR_DATE ( 2023, 13, 2 ) ;
#224 = UNCERTAINTY_MEASURE_WITH_UNIT (LENGTH_MEASURE( 1.000000000000000082E-05 ), #159, 'distance_accuracy_value', 'NONE');
#225 = EDGE_LOOP ( 'NONE', ( #90, #56 ) ) ;
#226 = CARTESIAN_POINT ( 'NONE',  ( -9.000000000000000000, 0.000000000000000000, 7.000000000000000000 ) ) ;
#227 = EDGE_CURVE ( 'NONE', #236, #221, #1, .T. ) ;
#228 = PERSON_AND_ORGANIZATION ( #103, #75 ) ;
#229 = LOCAL_TIME ( 11, 18, 30.00000000000000000, #119 ) ;
#230 = DIRECTION ( 'NONE',  ( 1.000000000000000000, 0.000000000000000000, 0.000000000000000000 ) ) ;
#231 = VECTOR ( 'NONE', #48, 1000.000000000000000 ) ;
#232 = DATE_AND_TIME ( #152, #173 ) ;
#233 = ORIENTED_EDGE ( 'NONE', *, *, #133, .F. ) ;
#234 = ORIENTED_EDGE ( 'NONE', *, *, #35, .F. ) ;
#235 = DIRECTION ( 'NONE',  ( 1.000000000000000000, 0.000000000000000000, 0.000000000000000000 ) ) ;
#236 = VERTEX_POINT ( 'NONE', #31 ) ;
#237 = ADVANCED_FACE ( 'NONE', ( #217 ), #127, .T. ) ;
#238 = MECHANICAL_CONTEXT ( 'NONE', #9, 'mechanical' ) ;
#239 = VERTEX_POINT ( 'NONE', #73 ) ;
#240 = APPROVAL_ROLE ( '' ) ;
#241 = DESIGN_CONTEXT ( 'detailed design', #212, 'design' ) ;
#242 = ORIENTED_EDGE ( 'NONE', *, *, #161, .T. ) ;
#243 = CC_DESIGN_APPROVAL ( #148, ( #94 ) ) ;
#244 = DIRECTION ( 'NONE',  ( 0.000000000000000000, 0.000000000000000000, 1.000000000000000000 ) ) ;
#245 = DIRECTION ( 'NONE',  ( 1.000000000000000000, 0.000000000000000000, 0.000000000000000000 ) ) ;
#246 = ADVANCED_FACE ( 'NONE', ( #178 ), #32, .T. ) ;
#247 = CIRCLE ( 'NONE', #83, 9.000000000000000000 ) ;
#248 = DIRECTION ( 'NONE',  ( 0.000000000000000000, 0.000000000000000000, 1.000000000000000000 ) ) ;
#249 = ORIENTED_EDGE ( 'NONE', *, *, #70, .F. ) ;
#250 = CARTESIAN_POINT ( 'NONE',  ( 0.000000000000000000, 0.000000000000000000, 7.000000000000000000 ) ) ;
#251 = ORIENTED_EDGE ( 'NONE', *, *, #57, .F. ) ;
#252 = EDGE_LOOP ( 'NONE', ( #233, #195 ) ) ;
#253 = CARTESIAN_POINT ( 'NONE',  ( 0.000000000000000000, 0.000000000000000000, 7.000000000000000000 ) ) ;
#254 = ORIENTED_EDGE ( 'NONE', *, *, #35, .T. ) ;
#255 = LOCAL_TIME ( 11, 18, 30.00000000000000000, #185 ) ;
ENDSEC;
END-ISO-10303-21;
