ISO-10303-21;
HEADER;
FILE_DESCRIPTION (( 'STEP AP203' ),
    '1' );
FILE_NAME ('6804.STEP',
    '2023-01-31T14:30:47',
    ( '' ),
    ( '' ),
    'SwSTEP 2.0',
    'SolidWorks 2019',
    '' );
FILE_SCHEMA (( 'CONFIG_CONTROL_DESIGN' ));
ENDSEC;

DATA;
#1 = CARTESIAN_POINT ( 'NONE',  ( 0.000000000000000000, 0.000000000000000000, 0.000000000000000000 ) ) ;
#2 = LOCAL_TIME ( 15, 30, 47.00000000000000000, #251 ) ;
#3 = FACE_OUTER_BOUND ( 'NONE', #53, .T. ) ;
#4 = CIRCLE ( 'NONE', #87, 0.5000000000000000000 ) ;
#5 = CARTESIAN_POINT ( 'NONE',  ( 1.250000000000000000, 1.530808498934191571E-16, 0.000000000000000000 ) ) ;
#6 = FACE_OUTER_BOUND ( 'NONE', #115, .T. ) ;
#7 = DIRECTION ( 'NONE',  ( 0.000000000000000000, 0.000000000000000000, 1.000000000000000000 ) ) ;
#8 = ORIENTED_EDGE ( 'NONE', *, *, #138, .F. ) ;
#9 = VERTEX_POINT ( 'NONE', #58 ) ;
#10 = CARTESIAN_POINT ( 'NONE',  ( 0.5000000000000000000, 6.123233995736766036E-17, 100.0000000000000000 ) ) ;
#11 = EDGE_LOOP ( 'NONE', ( #8, #185, #91, #129 ) ) ;
#12 = EDGE_CURVE ( 'NONE', #234, #210, #141, .T. ) ;
#13 = PERSON_AND_ORGANIZATION_ROLE ( 'design_supplier' ) ;
#14 = CALENDAR_DATE ( 2023, 31, 1 ) ;
#15 = LOCAL_TIME ( 15, 30, 47.00000000000000000, #181 ) ;
#16 = VERTEX_POINT ( 'NONE', #79 ) ;
#17 = COORDINATED_UNIVERSAL_TIME_OFFSET ( 1, 0, .AHEAD. ) ;
#18 = COORDINATED_UNIVERSAL_TIME_OFFSET ( 1, 0, .AHEAD. ) ;
#19 = CARTESIAN_POINT ( 'NONE',  ( 0.000000000000000000, 0.000000000000000000, 1.199999999999999956 ) ) ;
#20 = ADVANCED_FACE ( 'NONE', ( #242 ), #191, .T. ) ;
#21 = CARTESIAN_POINT ( 'NONE',  ( 1.250000000000000000, 1.530808498934191571E-16, 1.199999999999999956 ) ) ;
#22 = DIRECTION ( 'NONE',  ( -0.000000000000000000, -0.000000000000000000, -1.000000000000000000 ) ) ;
#23 = DIRECTION ( 'NONE',  ( 0.000000000000000000, 0.000000000000000000, 1.000000000000000000 ) ) ;
#24 = CC_DESIGN_APPROVAL ( #199, ( #245 ) ) ;
#25 = CARTESIAN_POINT ( 'NONE',  ( 0.000000000000000000, 0.000000000000000000, 1.199999999999999956 ) ) ;
#26 = CARTESIAN_POINT ( 'NONE',  ( 0.000000000000000000, 0.000000000000000000, 0.000000000000000000 ) ) ;
#27 = AXIS2_PLACEMENT_3D ( 'NONE', #224, #144, #63 ) ;
#28 = EDGE_CURVE ( 'NONE', #210, #9, #111, .T. ) ;
#29 = CARTESIAN_POINT ( 'NONE',  ( -1.250000000000000000, 0.000000000000000000, 1.199999999999999956 ) ) ;
#30 = CIRCLE ( 'NONE', #97, 1.250000000000000000 ) ;
#31 = DATE_TIME_ROLE ( 'classification_date' ) ;
#32 = APPROVAL_STATUS ( 'not_yet_approved' ) ;
#33 = DIRECTION ( 'NONE',  ( 0.000000000000000000, 0.000000000000000000, 1.000000000000000000 ) ) ;
#34 = DATE_AND_TIME ( #14, #68 ) ;
#35 = EDGE_CURVE ( 'NONE', #234, #171, #4, .T. ) ;
#36 = DIRECTION ( 'NONE',  ( -0.000000000000000000, -0.000000000000000000, -1.000000000000000000 ) ) ;
#37 = CARTESIAN_POINT ( 'NONE',  ( 0.000000000000000000, 0.000000000000000000, 1.199999999999999956 ) ) ;
#38 = APPROVAL_PERSON_ORGANIZATION ( #182, #199, #137 ) ;
#39 = LINE ( 'NONE', #21, #180 ) ;
#40 = APPLICATION_CONTEXT ( 'configuration controlled 3d designs of mechanical parts and assemblies' ) ;
#41 = CARTESIAN_POINT ( 'NONE',  ( 0.000000000000000000, 0.000000000000000000, 100.0000000000000000 ) ) ;
#42 = CLOSED_SHELL ( 'NONE', ( #119, #128, #189, #186, #240, #20, #195 ) ) ;
#43 = DIRECTION ( 'NONE',  ( 0.000000000000000000, 0.000000000000000000, 1.000000000000000000 ) ) ;
#44 = PRODUCT_DEFINITION_FORMATION_WITH_SPECIFIED_SOURCE ( 'LIBOVOLNÝ', '', #61, .NOT_KNOWN. ) ;
#45 = PLANE ( 'NONE',  #78 ) ;
#46 = CIRCLE ( 'NONE', #152, 1.250000000000000000 ) ;
#47 = AXIS2_PLACEMENT_3D ( 'NONE', #229, #66, #209 ) ;
#48 = ORIENTED_EDGE ( 'NONE', *, *, #138, .T. ) ;
#49 = DESIGN_CONTEXT ( 'detailed design', #40, 'design' ) ;
#50 = EDGE_LOOP ( 'NONE', ( #218, #176 ) ) ;
#51 =( NAMED_UNIT ( * ) SI_UNIT ( $, .STERADIAN. ) SOLID_ANGLE_UNIT ( ) );
#52 = DATE_AND_TIME ( #70, #2 ) ;
#53 = EDGE_LOOP ( 'NONE', ( #120, #48 ) ) ;
#54 = PERSON_AND_ORGANIZATION ( #130, #145 ) ;
#55 = CC_DESIGN_DATE_AND_TIME_ASSIGNMENT ( #253, #236, ( #245 ) ) ;
#56 = APPROVAL_ROLE ( '' ) ;
#57 = CC_DESIGN_APPROVAL ( #94, ( #84 ) ) ;
#58 = CARTESIAN_POINT ( 'NONE',  ( -0.5000000000000000000, 0.000000000000000000, 1.199999999999999956 ) ) ;
#59 = APPROVAL ( #32, 'NEURÈENÝ' ) ;
#60 = DIRECTION ( 'NONE',  ( 1.000000000000000000, 0.000000000000000000, 0.000000000000000000 ) ) ;
#61 = PRODUCT ( '6804', '6804', '', ( #76 ) ) ;
#62 = CYLINDRICAL_SURFACE ( 'NONE', #64, 0.5000000000000000000 ) ;
#63 = DIRECTION ( 'NONE',  ( -1.000000000000000000, 0.000000000000000000, 0.000000000000000000 ) ) ;
#64 = AXIS2_PLACEMENT_3D ( 'NONE', #86, #222, #124 ) ;
#65 = DIRECTION ( 'NONE',  ( -0.000000000000000000, -0.000000000000000000, -1.000000000000000000 ) ) ;
#66 = DIRECTION ( 'NONE',  ( 0.000000000000000000, 0.000000000000000000, 1.000000000000000000 ) ) ;
#67 = EDGE_CURVE ( 'NONE', #208, #157, #39, .T. ) ;
#68 = LOCAL_TIME ( 15, 30, 47.00000000000000000, #100 ) ;
#69 = CALENDAR_DATE ( 2023, 31, 1 ) ;
#70 = CALENDAR_DATE ( 2023, 31, 1 ) ;
#71 = AXIS2_PLACEMENT_3D ( 'NONE', #243, #109, #60 ) ;
#72 = EDGE_CURVE ( 'NONE', #16, #208, #132, .T. ) ;
#73 = APPROVAL_ROLE ( '' ) ;
#74 = SECURITY_CLASSIFICATION_LEVEL ( 'unclassified' ) ;
#75 = ADVANCED_BREP_SHAPE_REPRESENTATION ( '6804', ( #106, #139 ), #89 ) ;
#76 = MECHANICAL_CONTEXT ( 'NONE', #179, 'mechanical' ) ;
#77 = EDGE_CURVE ( 'NONE', #157, #194, #30, .T. ) ;
#78 = AXIS2_PLACEMENT_3D ( 'NONE', #26, #7, #114 ) ;
#79 = CARTESIAN_POINT ( 'NONE',  ( -1.250000000000000000, 0.000000000000000000, 1.199999999999999956 ) ) ;
#80 = CARTESIAN_POINT ( 'NONE',  ( 0.000000000000000000, 0.000000000000000000, 1.199999999999999956 ) ) ;
#81 = CC_DESIGN_DATE_AND_TIME_ASSIGNMENT ( #34, #31, ( #84 ) ) ;
#82 = PLANE ( 'NONE',  #233 ) ;
#83 = CARTESIAN_POINT ( 'NONE',  ( -1.250000000000000000, 0.000000000000000000, 0.000000000000000000 ) ) ;
#84 = SECURITY_CLASSIFICATION ( '', '', #74 ) ;
#85 = FACE_OUTER_BOUND ( 'NONE', #11, .T. ) ;
#86 = CARTESIAN_POINT ( 'NONE',  ( 0.000000000000000000, 0.000000000000000000, 100.0000000000000000 ) ) ;
#87 = AXIS2_PLACEMENT_3D ( 'NONE', #41, #223, #221 ) ;
#88 = VECTOR ( 'NONE', #228, 1000.000000000000000 ) ;
#89 =( GEOMETRIC_REPRESENTATION_CONTEXT ( 3 ) GLOBAL_UNCERTAINTY_ASSIGNED_CONTEXT ( ( #164 ) ) GLOBAL_UNIT_ASSIGNED_CONTEXT ( ( #92, #90, #51 ) ) REPRESENTATION_CONTEXT ( 'NONE', 'WORKASPACE' ) );
#90 =( NAMED_UNIT ( * ) PLANE_ANGLE_UNIT ( ) SI_UNIT ( $, .RADIAN. ) );
#91 = ORIENTED_EDGE ( 'NONE', *, *, #77, .T. ) ;
#92 =( LENGTH_UNIT ( ) NAMED_UNIT ( * ) SI_UNIT ( .MILLI., .METRE. ) );
#93 = PERSON_AND_ORGANIZATION ( #130, #145 ) ;
#94 = APPROVAL ( #159, 'NEURÈENÝ' ) ;
#95 = APPROVAL_STATUS ( 'not_yet_approved' ) ;
#96 = EDGE_LOOP ( 'NONE', ( #173, #248 ) ) ;
#97 = AXIS2_PLACEMENT_3D ( 'NONE', #204, #125, #192 ) ;
#98 = APPLICATION_PROTOCOL_DEFINITION ( 'international standard', 'config_control_design', 1994, #179 ) ;
#99 = EDGE_LOOP ( 'NONE', ( #184, #255, #136, #250 ) ) ;
#100 = COORDINATED_UNIVERSAL_TIME_OFFSET ( 1, 0, .AHEAD. ) ;
#101 = DIRECTION ( 'NONE',  ( 1.000000000000000000, 0.000000000000000000, 0.000000000000000000 ) ) ;
#102 = FACE_OUTER_BOUND ( 'NONE', #153, .T. ) ;
#103 = DIRECTION ( 'NONE',  ( 1.000000000000000000, 0.000000000000000000, 0.000000000000000000 ) ) ;
#104 = CC_DESIGN_PERSON_AND_ORGANIZATION_ASSIGNMENT ( #93, #198, ( #245 ) ) ;
#105 = DIRECTION ( 'NONE',  ( 0.000000000000000000, 0.000000000000000000, 1.000000000000000000 ) ) ;
#106 = MANIFOLD_SOLID_BREP ( 'Pøidat vysunutím3', #42 ) ;
#107 = CYLINDRICAL_SURFACE ( 'NONE', #247, 1.250000000000000000 ) ;
#108 = VECTOR ( 'NONE', #175, 1000.000000000000000 ) ;
#109 = DIRECTION ( 'NONE',  ( 0.000000000000000000, 0.000000000000000000, 1.000000000000000000 ) ) ;
#110 = CC_DESIGN_PERSON_AND_ORGANIZATION_ASSIGNMENT ( #54, #13, ( #44 ) ) ;
#111 = CIRCLE ( 'NONE', #149, 0.5000000000000000000 ) ;
#112 = CC_DESIGN_PERSON_AND_ORGANIZATION_ASSIGNMENT ( #123, #121, ( #84 ) ) ;
#113 = ORIENTED_EDGE ( 'NONE', *, *, #12, .T. ) ;
#114 = DIRECTION ( 'NONE',  ( 1.000000000000000000, 0.000000000000000000, -0.000000000000000000 ) ) ;
#115 = EDGE_LOOP ( 'NONE', ( #237, #113, #211, #238 ) ) ;
#116 = CARTESIAN_POINT ( 'NONE',  ( 0.5000000000000000000, 6.123233995736766036E-17, 1.199999999999999956 ) ) ;
#117 = LOCAL_TIME ( 15, 30, 47.00000000000000000, #17 ) ;
#118 = PERSON_AND_ORGANIZATION ( #130, #145 ) ;
#119 = ADVANCED_FACE ( 'NONE', ( #6 ), #62, .T. ) ;
#120 = ORIENTED_EDGE ( 'NONE', *, *, #72, .T. ) ;
#121 = PERSON_AND_ORGANIZATION_ROLE ( 'classification_officer' ) ;
#122 = DATE_AND_TIME ( #217, #134 ) ;
#123 = PERSON_AND_ORGANIZATION ( #130, #145 ) ;
#124 = DIRECTION ( 'NONE',  ( -1.000000000000000000, 0.000000000000000000, 0.000000000000000000 ) ) ;
#125 = DIRECTION ( 'NONE',  ( 0.000000000000000000, 0.000000000000000000, 1.000000000000000000 ) ) ;
#126 = CARTESIAN_POINT ( 'NONE',  ( 0.000000000000000000, 0.000000000000000000, 0.000000000000000000 ) ) ;
#127 = DIRECTION ( 'NONE',  ( 1.000000000000000000, 0.000000000000000000, -0.000000000000000000 ) ) ;
#128 = ADVANCED_FACE ( 'NONE', ( #85 ), #107, .T. ) ;
#129 = ORIENTED_EDGE ( 'NONE', *, *, #203, .F. ) ;
#130 = PERSON ( 'NEURÈENÝ', 'NEURÈENÝ', 'NEURÈENÝ', ('NEURÈENÝ'), ('NEURÈENÝ'), ('NEURÈENÝ') ) ;
#131 = ORIENTED_EDGE ( 'NONE', *, *, #67, .F. ) ;
#132 = CIRCLE ( 'NONE', #71, 1.250000000000000000 ) ;
#133 = AXIS2_PLACEMENT_3D ( 'NONE', #25, #202, #188 ) ;
#134 = LOCAL_TIME ( 15, 30, 47.00000000000000000, #18 ) ;
#135 = APPROVAL_DATE_TIME ( #52, #94 ) ;
#136 = ORIENTED_EDGE ( 'NONE', *, *, #254, .T. ) ;
#137 = APPROVAL_ROLE ( '' ) ;
#138 = EDGE_CURVE ( 'NONE', #208, #16, #241, .T. ) ;
#139 = AXIS2_PLACEMENT_3D ( 'NONE', #1, #33, #101 ) ;
#140 = PERSON_AND_ORGANIZATION ( #130, #145 ) ;
#141 = LINE ( 'NONE', #220, #162 ) ;
#142 = PRODUCT_DEFINITION_SHAPE ( 'NONE', 'NONE',  #245 ) ;
#143 = EDGE_CURVE ( 'NONE', #9, #210, #212, .T. ) ;
#144 = DIRECTION ( 'NONE',  ( -0.000000000000000000, -0.000000000000000000, -1.000000000000000000 ) ) ;
#145 = ORGANIZATION ( 'NEURÈENÝ', 'NEURÈENÝ', '' ) ;
#146 = DIRECTION ( 'NONE',  ( 1.000000000000000000, 0.000000000000000000, 0.000000000000000000 ) ) ;
#147 = CARTESIAN_POINT ( 'NONE',  ( 0.000000000000000000, 0.000000000000000000, 100.0000000000000000 ) ) ;
#148 = DIRECTION ( 'NONE',  ( 1.000000000000000000, 0.000000000000000000, 0.000000000000000000 ) ) ;
#149 = AXIS2_PLACEMENT_3D ( 'NONE', #37, #43, #146 ) ;
#150 = CC_DESIGN_SECURITY_CLASSIFICATION ( #84, ( #44 ) ) ;
#151 = EDGE_CURVE ( 'NONE', #194, #157, #46, .T. ) ;
#152 = AXIS2_PLACEMENT_3D ( 'NONE', #126, #169, #148 ) ;
#153 = EDGE_LOOP ( 'NONE', ( #131, #252, #230, #160 ) ) ;
#154 = FACE_OUTER_BOUND ( 'NONE', #231, .T. ) ;
#155 = CC_DESIGN_PERSON_AND_ORGANIZATION_ASSIGNMENT ( #140, #219, ( #44 ) ) ;
#156 = DATE_AND_TIME ( #69, #117 ) ;
#157 = VERTEX_POINT ( 'NONE', #5 ) ;
#158 = CIRCLE ( 'NONE', #47, 0.5000000000000000000 ) ;
#159 = APPROVAL_STATUS ( 'not_yet_approved' ) ;
#160 = ORIENTED_EDGE ( 'NONE', *, *, #151, .T. ) ;
#161 = PERSON_AND_ORGANIZATION_ROLE ( 'design_owner' ) ;
#162 = VECTOR ( 'NONE', #215, 1000.000000000000000 ) ;
#163 = DIRECTION ( 'NONE',  ( -1.000000000000000000, 0.000000000000000000, 0.000000000000000000 ) ) ;
#164 = UNCERTAINTY_MEASURE_WITH_UNIT (LENGTH_MEASURE( 1.000000000000000082E-05 ), #92, 'distance_accuracy_value', 'NONE');
#165 = CARTESIAN_POINT ( 'NONE',  ( 0.000000000000000000, 0.000000000000000000, 1.199999999999999956 ) ) ;
#166 = AXIS2_PLACEMENT_3D ( 'NONE', #80, #105, #103 ) ;
#167 = APPROVAL_PERSON_ORGANIZATION ( #118, #94, #73 ) ;
#168 = FACE_OUTER_BOUND ( 'NONE', #50, .T. ) ;
#169 = DIRECTION ( 'NONE',  ( 0.000000000000000000, 0.000000000000000000, 1.000000000000000000 ) ) ;
#170 = DIRECTION ( 'NONE',  ( 0.000000000000000000, 0.000000000000000000, 1.000000000000000000 ) ) ;
#171 = VERTEX_POINT ( 'NONE', #239 ) ;
#172 = CARTESIAN_POINT ( 'NONE',  ( -0.5000000000000000000, 0.000000000000000000, 100.0000000000000000 ) ) ;
#173 = ORIENTED_EDGE ( 'NONE', *, *, #143, .F. ) ;
#174 = CARTESIAN_POINT ( 'NONE',  ( 1.250000000000000000, 1.530808498934191571E-16, 1.199999999999999956 ) ) ;
#175 = DIRECTION ( 'NONE',  ( -0.000000000000000000, -0.000000000000000000, -1.000000000000000000 ) ) ;
#176 = ORIENTED_EDGE ( 'NONE', *, *, #35, .T. ) ;
#177 = APPROVAL_PERSON_ORGANIZATION ( #178, #59, #56 ) ;
#178 = PERSON_AND_ORGANIZATION ( #130, #145 ) ;
#179 = APPLICATION_CONTEXT ( 'configuration controlled 3d designs of mechanical parts and assemblies' ) ;
#180 = VECTOR ( 'NONE', #65, 1000.000000000000000 ) ;
#181 = COORDINATED_UNIVERSAL_TIME_OFFSET ( 1, 0, .AHEAD. ) ;
#182 = PERSON_AND_ORGANIZATION ( #130, #145 ) ;
#183 = PERSON_AND_ORGANIZATION ( #130, #145 ) ;
#184 = ORIENTED_EDGE ( 'NONE', *, *, #12, .F. ) ;
#185 = ORIENTED_EDGE ( 'NONE', *, *, #67, .T. ) ;
#186 = ADVANCED_FACE ( 'NONE', ( #244, #3 ), #82, .T. ) ;
#187 = DIRECTION ( 'NONE',  ( -1.000000000000000000, 0.000000000000000000, 0.000000000000000000 ) ) ;
#188 = DIRECTION ( 'NONE',  ( 1.000000000000000000, 0.000000000000000000, 0.000000000000000000 ) ) ;
#189 = ADVANCED_FACE ( 'NONE', ( #102 ), #205, .T. ) ;
#190 = CARTESIAN_POINT ( 'NONE',  ( 0.000000000000000000, 0.000000000000000000, 1.199999999999999956 ) ) ;
#191 = CYLINDRICAL_SURFACE ( 'NONE', #27, 0.5000000000000000000 ) ;
#192 = DIRECTION ( 'NONE',  ( 1.000000000000000000, 0.000000000000000000, 0.000000000000000000 ) ) ;
#193 = ORIENTED_EDGE ( 'NONE', *, *, #151, .F. ) ;
#194 = VERTEX_POINT ( 'NONE', #83 ) ;
#195 = ADVANCED_FACE ( 'NONE', ( #168 ), #225, .T. ) ;
#196 = LINE ( 'NONE', #172, #88 ) ;
#197 = CC_DESIGN_APPROVAL ( #59, ( #44 ) ) ;
#198 = PERSON_AND_ORGANIZATION_ROLE ( 'creator' ) ;
#199 = APPROVAL ( #95, 'NEURÈENÝ' ) ;
#200 = APPLICATION_PROTOCOL_DEFINITION ( 'international standard', 'config_control_design', 1994, #40 ) ;
#201 = CC_DESIGN_PERSON_AND_ORGANIZATION_ASSIGNMENT ( #183, #161, ( #61 ) ) ;
#202 = DIRECTION ( 'NONE',  ( 0.000000000000000000, 0.000000000000000000, 1.000000000000000000 ) ) ;
#203 = EDGE_CURVE ( 'NONE', #16, #194, #206, .T. ) ;
#204 = CARTESIAN_POINT ( 'NONE',  ( 0.000000000000000000, 0.000000000000000000, 0.000000000000000000 ) ) ;
#205 = CYLINDRICAL_SURFACE ( 'NONE', #207, 1.250000000000000000 ) ;
#206 = LINE ( 'NONE', #29, #108 ) ;
#207 = AXIS2_PLACEMENT_3D ( 'NONE', #165, #22, #187 ) ;
#208 = VERTEX_POINT ( 'NONE', #174 ) ;
#209 = DIRECTION ( 'NONE',  ( 1.000000000000000000, 0.000000000000000000, 0.000000000000000000 ) ) ;
#210 = VERTEX_POINT ( 'NONE', #116 ) ;
#211 = ORIENTED_EDGE ( 'NONE', *, *, #28, .T. ) ;
#212 = CIRCLE ( 'NONE', #133, 0.5000000000000000000 ) ;
#213 = APPROVAL_DATE_TIME ( #156, #59 ) ;
#214 = SHAPE_DEFINITION_REPRESENTATION ( #142, #75 ) ;
#215 = DIRECTION ( 'NONE',  ( -0.000000000000000000, -0.000000000000000000, -1.000000000000000000 ) ) ;
#216 = APPROVAL_DATE_TIME ( #122, #199 ) ;
#217 = CALENDAR_DATE ( 2023, 31, 1 ) ;
#218 = ORIENTED_EDGE ( 'NONE', *, *, #232, .T. ) ;
#219 = PERSON_AND_ORGANIZATION_ROLE ( 'creator' ) ;
#220 = CARTESIAN_POINT ( 'NONE',  ( 0.5000000000000000000, 6.123233995736766036E-17, 100.0000000000000000 ) ) ;
#221 = DIRECTION ( 'NONE',  ( 1.000000000000000000, 0.000000000000000000, 0.000000000000000000 ) ) ;
#222 = DIRECTION ( 'NONE',  ( -0.000000000000000000, -0.000000000000000000, -1.000000000000000000 ) ) ;
#223 = DIRECTION ( 'NONE',  ( 0.000000000000000000, 0.000000000000000000, 1.000000000000000000 ) ) ;
#224 = CARTESIAN_POINT ( 'NONE',  ( 0.000000000000000000, 0.000000000000000000, 100.0000000000000000 ) ) ;
#225 = PLANE ( 'NONE',  #227 ) ;
#226 = PRODUCT_RELATED_PRODUCT_CATEGORY ( 'detail', '', ( #61 ) ) ;
#227 = AXIS2_PLACEMENT_3D ( 'NONE', #147, #23, #127 ) ;
#228 = DIRECTION ( 'NONE',  ( -0.000000000000000000, -0.000000000000000000, -1.000000000000000000 ) ) ;
#229 = CARTESIAN_POINT ( 'NONE',  ( 0.000000000000000000, 0.000000000000000000, 100.0000000000000000 ) ) ;
#230 = ORIENTED_EDGE ( 'NONE', *, *, #203, .T. ) ;
#231 = EDGE_LOOP ( 'NONE', ( #193, #249 ) ) ;
#232 = EDGE_CURVE ( 'NONE', #171, #234, #158, .T. ) ;
#233 = AXIS2_PLACEMENT_3D ( 'NONE', #19, #170, #246 ) ;
#234 = VERTEX_POINT ( 'NONE', #10 ) ;
#235 = CALENDAR_DATE ( 2023, 31, 1 ) ;
#236 = DATE_TIME_ROLE ( 'creation_date' ) ;
#237 = ORIENTED_EDGE ( 'NONE', *, *, #35, .F. ) ;
#238 = ORIENTED_EDGE ( 'NONE', *, *, #254, .F. ) ;
#239 = CARTESIAN_POINT ( 'NONE',  ( -0.5000000000000000000, 0.000000000000000000, 100.0000000000000000 ) ) ;
#240 = ADVANCED_FACE ( 'NONE', ( #154 ), #45, .F. ) ;
#241 = CIRCLE ( 'NONE', #166, 1.250000000000000000 ) ;
#242 = FACE_OUTER_BOUND ( 'NONE', #99, .T. ) ;
#243 = CARTESIAN_POINT ( 'NONE',  ( 0.000000000000000000, 0.000000000000000000, 1.199999999999999956 ) ) ;
#244 = FACE_BOUND ( 'NONE', #96, .T. ) ;
#245 = PRODUCT_DEFINITION ( 'NEZNÁMÝ', '', #44, #49 ) ;
#246 = DIRECTION ( 'NONE',  ( 1.000000000000000000, 0.000000000000000000, -0.000000000000000000 ) ) ;
#247 = AXIS2_PLACEMENT_3D ( 'NONE', #190, #36, #163 ) ;
#248 = ORIENTED_EDGE ( 'NONE', *, *, #28, .F. ) ;
#249 = ORIENTED_EDGE ( 'NONE', *, *, #77, .F. ) ;
#250 = ORIENTED_EDGE ( 'NONE', *, *, #143, .T. ) ;
#251 = COORDINATED_UNIVERSAL_TIME_OFFSET ( 1, 0, .AHEAD. ) ;
#252 = ORIENTED_EDGE ( 'NONE', *, *, #72, .F. ) ;
#253 = DATE_AND_TIME ( #235, #15 ) ;
#254 = EDGE_CURVE ( 'NONE', #171, #9, #196, .T. ) ;
#255 = ORIENTED_EDGE ( 'NONE', *, *, #232, .F. ) ;
ENDSEC;
END-ISO-10303-21;
