ISO-10303-21;
HEADER;
FILE_DESCRIPTION (( 'STEP AP203' ),
    '1' );
FILE_NAME ('5a65.STEP',
    '2023-02-13T14:05:26',
    ( '' ),
    ( '' ),
    'SwSTEP 2.0',
    'SolidWorks 2019',
    '' );
FILE_SCHEMA (( 'CONFIG_CONTROL_DESIGN' ));
ENDSEC;

DATA;
#1 = VERTEX_POINT ( 'NONE', #225 ) ;
#2 = DESIGN_CONTEXT ( 'detailed design', #9, 'design' ) ;
#3 = EDGE_LOOP ( 'NONE', ( #123, #105 ) ) ;
#4 = DIRECTION ( 'NONE',  ( 1.000000000000000000, 0.000000000000000000, 0.000000000000000000 ) ) ;
#5 = EDGE_CURVE ( 'NONE', #241, #206, #104, .T. ) ;
#6 = CYLINDRICAL_SURFACE ( 'NONE', #180, 6.000000000000000888 ) ;
#7 = CARTESIAN_POINT ( 'NONE',  ( 0.000000000000000000, 0.000000000000000000, 250.0000000000000000 ) ) ;
#8 = CIRCLE ( 'NONE', #196, 3.100000000000000089 ) ;
#9 = APPLICATION_CONTEXT ( 'configuration controlled 3d designs of mechanical parts and assemblies' ) ;
#10 = PLANE ( 'NONE',  #110 ) ;
#11 = AXIS2_PLACEMENT_3D ( 'NONE', #40, #28, #121 ) ;
#12 = CARTESIAN_POINT ( 'NONE',  ( 0.000000000000000000, 0.000000000000000000, 5.000000000000000000 ) ) ;
#13 = AXIS2_PLACEMENT_3D ( 'NONE', #12, #146, #145 ) ;
#14 = CARTESIAN_POINT ( 'NONE',  ( -3.100000000000000089, 0.000000000000000000, 250.0000000000000000 ) ) ;
#15 = PERSON_AND_ORGANIZATION ( #131, #17 ) ;
#16 = CIRCLE ( 'NONE', #11, 6.000000000000000888 ) ;
#17 = ORGANIZATION ( 'NEURÈENÝ', 'NEURÈENÝ', '' ) ;
#18 = COORDINATED_UNIVERSAL_TIME_OFFSET ( 1, 0, .AHEAD. ) ;
#19 = COORDINATED_UNIVERSAL_TIME_OFFSET ( 1, 0, .AHEAD. ) ;
#20 = PERSON_AND_ORGANIZATION ( #131, #17 ) ;
#21 = ORIENTED_EDGE ( 'NONE', *, *, #5, .T. ) ;
#22 = AXIS2_PLACEMENT_3D ( 'NONE', #148, #246, #94 ) ;
#23 = DIRECTION ( 'NONE',  ( 0.000000000000000000, 0.000000000000000000, 1.000000000000000000 ) ) ;
#24 = EDGE_LOOP ( 'NONE', ( #136, #245, #184, #186 ) ) ;
#25 = DIRECTION ( 'NONE',  ( -0.000000000000000000, -0.000000000000000000, -1.000000000000000000 ) ) ;
#26 = AXIS2_PLACEMENT_3D ( 'NONE', #208, #141, #187 ) ;
#27 = DIRECTION ( 'NONE',  ( 1.000000000000000000, 0.000000000000000000, 0.000000000000000000 ) ) ;
#28 = DIRECTION ( 'NONE',  ( 0.000000000000000000, 0.000000000000000000, 1.000000000000000000 ) ) ;
#29 = CARTESIAN_POINT ( 'NONE',  ( -6.000000000000000888, 0.000000000000000000, 0.000000000000000000 ) ) ;
#30 = EDGE_CURVE ( 'NONE', #183, #253, #124, .T. ) ;
#31 = LOCAL_TIME ( 15, 5, 26.00000000000000000, #56 ) ;
#32 = FACE_OUTER_BOUND ( 'NONE', #53, .T. ) ;
#33 = FACE_OUTER_BOUND ( 'NONE', #43, .T. ) ;
#34 = APPLICATION_CONTEXT ( 'configuration controlled 3d designs of mechanical parts and assemblies' ) ;
#35 = FACE_OUTER_BOUND ( 'NONE', #73, .T. ) ;
#36 = ORIENTED_EDGE ( 'NONE', *, *, #213, .T. ) ;
#37 = APPROVAL_PERSON_ORGANIZATION ( #38, #168, #198 ) ;
#38 = PERSON_AND_ORGANIZATION ( #131, #17 ) ;
#39 = LOCAL_TIME ( 15, 5, 26.00000000000000000, #19 ) ;
#40 = CARTESIAN_POINT ( 'NONE',  ( 0.000000000000000000, 0.000000000000000000, 5.000000000000000000 ) ) ;
#41 = VECTOR ( 'NONE', #69, 1000.000000000000000 ) ;
#42 = DIRECTION ( 'NONE',  ( 0.000000000000000000, 0.000000000000000000, 1.000000000000000000 ) ) ;
#43 = EDGE_LOOP ( 'NONE', ( #164, #72 ) ) ;
#44 = VERTEX_POINT ( 'NONE', #122 ) ;
#45 = FACE_BOUND ( 'NONE', #3, .T. ) ;
#46 = CIRCLE ( 'NONE', #192, 6.000000000000000888 ) ;
#47 = CARTESIAN_POINT ( 'NONE',  ( 0.000000000000000000, 0.000000000000000000, 0.000000000000000000 ) ) ;
#48 = AXIS2_PLACEMENT_3D ( 'NONE', #204, #103, #61 ) ;
#49 = CARTESIAN_POINT ( 'NONE',  ( 3.100000000000000089, 3.796405077356794918E-16, 250.0000000000000000 ) ) ;
#50 = LOCAL_TIME ( 15, 5, 26.00000000000000000, #157 ) ;
#51 =( NAMED_UNIT ( * ) SI_UNIT ( $, .STERADIAN. ) SOLID_ANGLE_UNIT ( ) );
#52 = EDGE_CURVE ( 'NONE', #206, #183, #64, .T. ) ;
#53 = EDGE_LOOP ( 'NONE', ( #231, #159 ) ) ;
#54 = PERSON_AND_ORGANIZATION_ROLE ( 'design_owner' ) ;
#55 = APPROVAL_STATUS ( 'not_yet_approved' ) ;
#56 = COORDINATED_UNIVERSAL_TIME_OFFSET ( 1, 0, .AHEAD. ) ;
#57 = LOCAL_TIME ( 15, 5, 26.00000000000000000, #255 ) ;
#58 = DATE_TIME_ROLE ( 'creation_date' ) ;
#59 = APPROVAL ( #55, 'NEURÈENÝ' ) ;
#60 = EDGE_LOOP ( 'NONE', ( #223, #163, #150, #152 ) ) ;
#61 = DIRECTION ( 'NONE',  ( 1.000000000000000000, 0.000000000000000000, 0.000000000000000000 ) ) ;
#62 = ADVANCED_FACE ( 'NONE', ( #106 ), #6, .T. ) ;
#63 = CARTESIAN_POINT ( 'NONE',  ( -6.000000000000000888, 0.000000000000000000, 5.000000000000000000 ) ) ;
#64 = LINE ( 'NONE', #203, #188 ) ;
#65 = CARTESIAN_POINT ( 'NONE',  ( 3.100000000000000089, 3.796405077356794918E-16, 5.000000000000000000 ) ) ;
#66 = EDGE_CURVE ( 'NONE', #206, #241, #16, .T. ) ;
#67 = APPROVAL ( #175, 'NEURÈENÝ' ) ;
#68 = DIRECTION ( 'NONE',  ( -0.000000000000000000, -0.000000000000000000, -1.000000000000000000 ) ) ;
#69 = DIRECTION ( 'NONE',  ( -0.000000000000000000, -0.000000000000000000, -1.000000000000000000 ) ) ;
#70 = SECURITY_CLASSIFICATION ( '', '', #117 ) ;
#71 = DIRECTION ( 'NONE',  ( 0.000000000000000000, 0.000000000000000000, 1.000000000000000000 ) ) ;
#72 = ORIENTED_EDGE ( 'NONE', *, *, #98, .T. ) ;
#73 = EDGE_LOOP ( 'NONE', ( #238, #120, #36, #201 ) ) ;
#74 =( GEOMETRIC_REPRESENTATION_CONTEXT ( 3 ) GLOBAL_UNCERTAINTY_ASSIGNED_CONTEXT ( ( #139 ) ) GLOBAL_UNIT_ASSIGNED_CONTEXT ( ( #111, #172, #51 ) ) REPRESENTATION_CONTEXT ( 'NONE', 'WORKASPACE' ) );
#75 = CC_DESIGN_PERSON_AND_ORGANIZATION_ASSIGNMENT ( #99, #77, ( #222 ) ) ;
#76 = DATE_AND_TIME ( #129, #50 ) ;
#77 = PERSON_AND_ORGANIZATION_ROLE ( 'creator' ) ;
#78 = APPROVAL_DATE_TIME ( #178, #67 ) ;
#79 = CARTESIAN_POINT ( 'NONE',  ( 0.000000000000000000, 0.000000000000000000, 250.0000000000000000 ) ) ;
#80 = CIRCLE ( 'NONE', #228, 3.100000000000000089 ) ;
#81 = EDGE_LOOP ( 'NONE', ( #21, #102 ) ) ;
#82 = EDGE_CURVE ( 'NONE', #194, #219, #144, .T. ) ;
#83 = CC_DESIGN_SECURITY_CLASSIFICATION ( #70, ( #222 ) ) ;
#84 = LINE ( 'NONE', #63, #87 ) ;
#85 = DIRECTION ( 'NONE',  ( -1.000000000000000000, 0.000000000000000000, 0.000000000000000000 ) ) ;
#86 = ORIENTED_EDGE ( 'NONE', *, *, #30, .T. ) ;
#87 = VECTOR ( 'NONE', #140, 1000.000000000000000 ) ;
#88 = ADVANCED_FACE ( 'NONE', ( #45, #119 ), #108, .T. ) ;
#89 = FACE_OUTER_BOUND ( 'NONE', #24, .T. ) ;
#90 = DIRECTION ( 'NONE',  ( 1.000000000000000000, 0.000000000000000000, 0.000000000000000000 ) ) ;
#91 = CARTESIAN_POINT ( 'NONE',  ( 0.000000000000000000, 0.000000000000000000, 0.000000000000000000 ) ) ;
#92 = CYLINDRICAL_SURFACE ( 'NONE', #101, 3.100000000000000089 ) ;
#93 = PRODUCT ( '5a65', '5a65', '', ( #218 ) ) ;
#94 = DIRECTION ( 'NONE',  ( -1.000000000000000000, 0.000000000000000000, 0.000000000000000000 ) ) ;
#95 = PRODUCT_DEFINITION_SHAPE ( 'NONE', 'NONE',  #107 ) ;
#96 = EDGE_CURVE ( 'NONE', #1, #44, #8, .T. ) ;
#97 = CALENDAR_DATE ( 2023, 13, 2 ) ;
#98 = EDGE_CURVE ( 'NONE', #44, #1, #80, .T. ) ;
#99 = PERSON_AND_ORGANIZATION ( #131, #17 ) ;
#100 = DATE_TIME_ROLE ( 'classification_date' ) ;
#101 = AXIS2_PLACEMENT_3D ( 'NONE', #143, #68, #210 ) ;
#102 = ORIENTED_EDGE ( 'NONE', *, *, #66, .T. ) ;
#103 = DIRECTION ( 'NONE',  ( 0.000000000000000000, 0.000000000000000000, 1.000000000000000000 ) ) ;
#104 = CIRCLE ( 'NONE', #202, 6.000000000000000888 ) ;
#105 = ORIENTED_EDGE ( 'NONE', *, *, #82, .F. ) ;
#106 = FACE_OUTER_BOUND ( 'NONE', #60, .T. ) ;
#107 = PRODUCT_DEFINITION ( 'NEZNÁMÝ', '', #222, #2 ) ;
#108 = PLANE ( 'NONE',  #26 ) ;
#109 = CARTESIAN_POINT ( 'NONE',  ( 0.000000000000000000, 0.000000000000000000, 5.000000000000000000 ) ) ;
#110 = AXIS2_PLACEMENT_3D ( 'NONE', #248, #227, #128 ) ;
#111 =( LENGTH_UNIT ( ) NAMED_UNIT ( * ) SI_UNIT ( .MILLI., .METRE. ) );
#112 = EDGE_CURVE ( 'NONE', #241, #253, #84, .T. ) ;
#113 = DIRECTION ( 'NONE',  ( -0.000000000000000000, -0.000000000000000000, -1.000000000000000000 ) ) ;
#114 = ADVANCED_BREP_SHAPE_REPRESENTATION ( '5a65', ( #147, #254 ), #74 ) ;
#115 = PERSON_AND_ORGANIZATION_ROLE ( 'classification_officer' ) ;
#116 = CALENDAR_DATE ( 2023, 13, 2 ) ;
#117 = SECURITY_CLASSIFICATION_LEVEL ( 'unclassified' ) ;
#118 = ADVANCED_FACE ( 'NONE', ( #33 ), #247, .T. ) ;
#119 = FACE_OUTER_BOUND ( 'NONE', #81, .T. ) ;
#120 = ORIENTED_EDGE ( 'NONE', *, *, #96, .F. ) ;
#121 = DIRECTION ( 'NONE',  ( 1.000000000000000000, 0.000000000000000000, 0.000000000000000000 ) ) ;
#122 = CARTESIAN_POINT ( 'NONE',  ( 3.100000000000000089, 3.796405077356794918E-16, 250.0000000000000000 ) ) ;
#123 = ORIENTED_EDGE ( 'NONE', *, *, #181, .F. ) ;
#124 = CIRCLE ( 'NONE', #160, 6.000000000000000888 ) ;
#125 = DIRECTION ( 'NONE',  ( -0.000000000000000000, -0.000000000000000000, -1.000000000000000000 ) ) ;
#126 = ADVANCED_FACE ( 'NONE', ( #32 ), #10, .F. ) ;
#127 = DIRECTION ( 'NONE',  ( 0.000000000000000000, 0.000000000000000000, 1.000000000000000000 ) ) ;
#128 = DIRECTION ( 'NONE',  ( 1.000000000000000000, 0.000000000000000000, -0.000000000000000000 ) ) ;
#129 = CALENDAR_DATE ( 2023, 13, 2 ) ;
#130 = PERSON_AND_ORGANIZATION ( #131, #17 ) ;
#131 = PERSON ( 'NEURÈENÝ', 'NEURÈENÝ', 'NEURÈENÝ', ('NEURÈENÝ'), ('NEURÈENÝ'), ('NEURÈENÝ') ) ;
#132 = APPROVAL_DATE_TIME ( #133, #168 ) ;
#133 = DATE_AND_TIME ( #116, #39 ) ;
#134 = CARTESIAN_POINT ( 'NONE',  ( 0.000000000000000000, 0.000000000000000000, 0.000000000000000000 ) ) ;
#135 = ADVANCED_FACE ( 'NONE', ( #89 ), #92, .T. ) ;
#136 = ORIENTED_EDGE ( 'NONE', *, *, #98, .F. ) ;
#137 = CC_DESIGN_APPROVAL ( #59, ( #107 ) ) ;
#138 = DIRECTION ( 'NONE',  ( 1.000000000000000000, 0.000000000000000000, 0.000000000000000000 ) ) ;
#139 = UNCERTAINTY_MEASURE_WITH_UNIT (LENGTH_MEASURE( 1.000000000000000082E-05 ), #111, 'distance_accuracy_value', 'NONE');
#140 = DIRECTION ( 'NONE',  ( -0.000000000000000000, -0.000000000000000000, -1.000000000000000000 ) ) ;
#141 = DIRECTION ( 'NONE',  ( 0.000000000000000000, 0.000000000000000000, 1.000000000000000000 ) ) ;
#142 = CARTESIAN_POINT ( 'NONE',  ( 6.000000000000000888, 7.347880794884120722E-16, 5.000000000000000000 ) ) ;
#143 = CARTESIAN_POINT ( 'NONE',  ( 0.000000000000000000, 0.000000000000000000, 250.0000000000000000 ) ) ;
#144 = CIRCLE ( 'NONE', #48, 3.100000000000000089 ) ;
#145 = DIRECTION ( 'NONE',  ( 1.000000000000000000, 0.000000000000000000, 0.000000000000000000 ) ) ;
#146 = DIRECTION ( 'NONE',  ( 0.000000000000000000, 0.000000000000000000, 1.000000000000000000 ) ) ;
#147 = MANIFOLD_SOLID_BREP ( 'Pøidat vysunutím3', #239 ) ;
#148 = CARTESIAN_POINT ( 'NONE',  ( 0.000000000000000000, 0.000000000000000000, 250.0000000000000000 ) ) ;
#149 = CC_DESIGN_PERSON_AND_ORGANIZATION_ASSIGNMENT ( #20, #54, ( #93 ) ) ;
#150 = ORIENTED_EDGE ( 'NONE', *, *, #112, .T. ) ;
#151 = APPROVAL_DATE_TIME ( #236, #59 ) ;
#152 = ORIENTED_EDGE ( 'NONE', *, *, #200, .T. ) ;
#153 = CC_DESIGN_DATE_AND_TIME_ASSIGNMENT ( #252, #100, ( #70 ) ) ;
#154 = CIRCLE ( 'NONE', #13, 3.100000000000000089 ) ;
#155 = APPROVAL_STATUS ( 'not_yet_approved' ) ;
#156 = PERSON_AND_ORGANIZATION ( #131, #17 ) ;
#157 = COORDINATED_UNIVERSAL_TIME_OFFSET ( 1, 0, .AHEAD. ) ;
#158 = CC_DESIGN_DATE_AND_TIME_ASSIGNMENT ( #76, #58, ( #107 ) ) ;
#159 = ORIENTED_EDGE ( 'NONE', *, *, #30, .F. ) ;
#160 = AXIS2_PLACEMENT_3D ( 'NONE', #134, #205, #27 ) ;
#161 = DIRECTION ( 'NONE',  ( 1.000000000000000000, 0.000000000000000000, 0.000000000000000000 ) ) ;
#162 = AXIS2_PLACEMENT_3D ( 'NONE', #109, #113, #230 ) ;
#163 = ORIENTED_EDGE ( 'NONE', *, *, #5, .F. ) ;
#164 = ORIENTED_EDGE ( 'NONE', *, *, #96, .T. ) ;
#165 = CARTESIAN_POINT ( 'NONE',  ( 0.000000000000000000, 0.000000000000000000, 5.000000000000000000 ) ) ;
#166 = APPROVAL_PERSON_ORGANIZATION ( #195, #67, #251 ) ;
#167 = CYLINDRICAL_SURFACE ( 'NONE', #22, 3.100000000000000089 ) ;
#168 = APPROVAL ( #155, 'NEURÈENÝ' ) ;
#169 = LINE ( 'NONE', #49, #41 ) ;
#170 = CARTESIAN_POINT ( 'NONE',  ( -3.100000000000000089, 0.000000000000000000, 5.000000000000000000 ) ) ;
#171 = CARTESIAN_POINT ( 'NONE',  ( 6.000000000000000888, 7.347880794884120722E-16, 0.000000000000000000 ) ) ;
#172 =( NAMED_UNIT ( * ) PLANE_ANGLE_UNIT ( ) SI_UNIT ( $, .RADIAN. ) );
#173 = ORIENTED_EDGE ( 'NONE', *, *, #52, .T. ) ;
#174 = CALENDAR_DATE ( 2023, 13, 2 ) ;
#175 = APPROVAL_STATUS ( 'not_yet_approved' ) ;
#176 = CC_DESIGN_APPROVAL ( #168, ( #222 ) ) ;
#177 = ADVANCED_FACE ( 'NONE', ( #191 ), #214, .T. ) ;
#178 = DATE_AND_TIME ( #97, #207 ) ;
#179 = CALENDAR_DATE ( 2023, 13, 2 ) ;
#180 = AXIS2_PLACEMENT_3D ( 'NONE', #165, #25, #85 ) ;
#181 = EDGE_CURVE ( 'NONE', #219, #194, #154, .T. ) ;
#182 = CC_DESIGN_APPROVAL ( #67, ( #70 ) ) ;
#183 = VERTEX_POINT ( 'NONE', #171 ) ;
#184 = ORIENTED_EDGE ( 'NONE', *, *, #82, .T. ) ;
#185 = DIRECTION ( 'NONE',  ( 0.000000000000000000, 0.000000000000000000, 1.000000000000000000 ) ) ;
#186 = ORIENTED_EDGE ( 'NONE', *, *, #213, .F. ) ;
#187 = DIRECTION ( 'NONE',  ( 1.000000000000000000, 0.000000000000000000, -0.000000000000000000 ) ) ;
#188 = VECTOR ( 'NONE', #242, 1000.000000000000000 ) ;
#189 = APPLICATION_PROTOCOL_DEFINITION ( 'international standard', 'config_control_design', 1994, #34 ) ;
#190 = DIRECTION ( 'NONE',  ( 1.000000000000000000, 0.000000000000000000, -0.000000000000000000 ) ) ;
#191 = FACE_OUTER_BOUND ( 'NONE', #250, .T. ) ;
#192 = AXIS2_PLACEMENT_3D ( 'NONE', #47, #71, #90 ) ;
#193 = SHAPE_DEFINITION_REPRESENTATION ( #95, #114 ) ;
#194 = VERTEX_POINT ( 'NONE', #65 ) ;
#195 = PERSON_AND_ORGANIZATION ( #131, #17 ) ;
#196 = AXIS2_PLACEMENT_3D ( 'NONE', #7, #23, #138 ) ;
#197 = CC_DESIGN_PERSON_AND_ORGANIZATION_ASSIGNMENT ( #217, #115, ( #70 ) ) ;
#198 = APPROVAL_ROLE ( '' ) ;
#199 = APPROVAL_ROLE ( '' ) ;
#200 = EDGE_CURVE ( 'NONE', #253, #183, #46, .T. ) ;
#201 = ORIENTED_EDGE ( 'NONE', *, *, #181, .T. ) ;
#202 = AXIS2_PLACEMENT_3D ( 'NONE', #243, #42, #161 ) ;
#203 = CARTESIAN_POINT ( 'NONE',  ( 6.000000000000000888, 7.347880794884120722E-16, 5.000000000000000000 ) ) ;
#204 = CARTESIAN_POINT ( 'NONE',  ( 0.000000000000000000, 0.000000000000000000, 5.000000000000000000 ) ) ;
#205 = DIRECTION ( 'NONE',  ( 0.000000000000000000, 0.000000000000000000, 1.000000000000000000 ) ) ;
#206 = VERTEX_POINT ( 'NONE', #142 ) ;
#207 = LOCAL_TIME ( 15, 5, 26.00000000000000000, #18 ) ;
#208 = CARTESIAN_POINT ( 'NONE',  ( 0.000000000000000000, 0.000000000000000000, 5.000000000000000000 ) ) ;
#209 = CC_DESIGN_PERSON_AND_ORGANIZATION_ASSIGNMENT ( #130, #234, ( #107 ) ) ;
#210 = DIRECTION ( 'NONE',  ( -1.000000000000000000, 0.000000000000000000, 0.000000000000000000 ) ) ;
#211 = CARTESIAN_POINT ( 'NONE',  ( 0.000000000000000000, 0.000000000000000000, 250.0000000000000000 ) ) ;
#212 = DIRECTION ( 'NONE',  ( 1.000000000000000000, 0.000000000000000000, 0.000000000000000000 ) ) ;
#213 = EDGE_CURVE ( 'NONE', #1, #219, #229, .T. ) ;
#214 = CYLINDRICAL_SURFACE ( 'NONE', #162, 6.000000000000000888 ) ;
#215 = PRODUCT_RELATED_PRODUCT_CATEGORY ( 'detail', '', ( #93 ) ) ;
#216 = PERSON_AND_ORGANIZATION_ROLE ( 'design_supplier' ) ;
#217 = PERSON_AND_ORGANIZATION ( #131, #17 ) ;
#218 = MECHANICAL_CONTEXT ( 'NONE', #34, 'mechanical' ) ;
#219 = VERTEX_POINT ( 'NONE', #170 ) ;
#220 = ORIENTED_EDGE ( 'NONE', *, *, #112, .F. ) ;
#221 = APPROVAL_PERSON_ORGANIZATION ( #156, #59, #199 ) ;
#222 = PRODUCT_DEFINITION_FORMATION_WITH_SPECIFIED_SOURCE ( 'LIBOVOLNÝ', '', #93, .NOT_KNOWN. ) ;
#223 = ORIENTED_EDGE ( 'NONE', *, *, #52, .F. ) ;
#224 = ORIENTED_EDGE ( 'NONE', *, *, #66, .F. ) ;
#225 = CARTESIAN_POINT ( 'NONE',  ( -3.100000000000000089, 0.000000000000000000, 250.0000000000000000 ) ) ;
#226 = VECTOR ( 'NONE', #125, 1000.000000000000000 ) ;
#227 = DIRECTION ( 'NONE',  ( 0.000000000000000000, 0.000000000000000000, 1.000000000000000000 ) ) ;
#228 = AXIS2_PLACEMENT_3D ( 'NONE', #79, #185, #4 ) ;
#229 = LINE ( 'NONE', #14, #226 ) ;
#230 = DIRECTION ( 'NONE',  ( -1.000000000000000000, 0.000000000000000000, 0.000000000000000000 ) ) ;
#231 = ORIENTED_EDGE ( 'NONE', *, *, #200, .F. ) ;
#232 = CARTESIAN_POINT ( 'NONE',  ( -6.000000000000000888, 0.000000000000000000, 5.000000000000000000 ) ) ;
#233 = AXIS2_PLACEMENT_3D ( 'NONE', #211, #249, #190 ) ;
#234 = PERSON_AND_ORGANIZATION_ROLE ( 'creator' ) ;
#235 = ADVANCED_FACE ( 'NONE', ( #35 ), #167, .T. ) ;
#236 = DATE_AND_TIME ( #179, #31 ) ;
#237 = APPLICATION_PROTOCOL_DEFINITION ( 'international standard', 'config_control_design', 1994, #9 ) ;
#238 = ORIENTED_EDGE ( 'NONE', *, *, #244, .F. ) ;
#239 = CLOSED_SHELL ( 'NONE', ( #135, #177, #62, #88, #126, #235, #118 ) ) ;
#240 = CC_DESIGN_PERSON_AND_ORGANIZATION_ASSIGNMENT ( #15, #216, ( #222 ) ) ;
#241 = VERTEX_POINT ( 'NONE', #232 ) ;
#242 = DIRECTION ( 'NONE',  ( -0.000000000000000000, -0.000000000000000000, -1.000000000000000000 ) ) ;
#243 = CARTESIAN_POINT ( 'NONE',  ( 0.000000000000000000, 0.000000000000000000, 5.000000000000000000 ) ) ;
#244 = EDGE_CURVE ( 'NONE', #44, #194, #169, .T. ) ;
#245 = ORIENTED_EDGE ( 'NONE', *, *, #244, .T. ) ;
#246 = DIRECTION ( 'NONE',  ( -0.000000000000000000, -0.000000000000000000, -1.000000000000000000 ) ) ;
#247 = PLANE ( 'NONE',  #233 ) ;
#248 = CARTESIAN_POINT ( 'NONE',  ( 0.000000000000000000, 0.000000000000000000, 0.000000000000000000 ) ) ;
#249 = DIRECTION ( 'NONE',  ( 0.000000000000000000, 0.000000000000000000, 1.000000000000000000 ) ) ;
#250 = EDGE_LOOP ( 'NONE', ( #224, #173, #86, #220 ) ) ;
#251 = APPROVAL_ROLE ( '' ) ;
#252 = DATE_AND_TIME ( #174, #57 ) ;
#253 = VERTEX_POINT ( 'NONE', #29 ) ;
#254 = AXIS2_PLACEMENT_3D ( 'NONE', #91, #127, #212 ) ;
#255 = COORDINATED_UNIVERSAL_TIME_OFFSET ( 1, 0, .AHEAD. ) ;
ENDSEC;
END-ISO-10303-21;
