ISO-10303-21;
HEADER;
FILE_DESCRIPTION (( 'STEP AP203' ),
    '1' );
FILE_NAME ('b118.STEP',
    '2023-01-31T14:48:44',
    ( '' ),
    ( '' ),
    'SwSTEP 2.0',
    'SolidWorks 2019',
    '' );
FILE_SCHEMA (( 'CONFIG_CONTROL_DESIGN' ));
ENDSEC;

DATA;
#1 = PERSON_AND_ORGANIZATION ( #83, #213 ) ;
#2 = ADVANCED_FACE ( 'NONE', ( #167 ), #242, .T. ) ;
#3 =( GEOMETRIC_REPRESENTATION_CONTEXT ( 3 ) GLOBAL_UNCERTAINTY_ASSIGNED_CONTEXT ( ( #40 ) ) GLOBAL_UNIT_ASSIGNED_CONTEXT ( ( #22, #39, #212 ) ) REPRESENTATION_CONTEXT ( 'NONE', 'WORKASPACE' ) );
#4 = COORDINATED_UNIVERSAL_TIME_OFFSET ( 1, 0, .AHEAD. ) ;
#5 = SECURITY_CLASSIFICATION_LEVEL ( 'unclassified' ) ;
#6 = CC_DESIGN_DATE_AND_TIME_ASSIGNMENT ( #82, #44, ( #118 ) ) ;
#7 = VECTOR ( 'NONE', #103, 1000.000000000000000 ) ;
#8 = VERTEX_POINT ( 'NONE', #134 ) ;
#9 = CARTESIAN_POINT ( 'NONE',  ( 0.000000000000000000, 0.000000000000000000, 1.199999999999999956 ) ) ;
#10 = PRODUCT ( 'b118', 'b118', '', ( #201 ) ) ;
#11 = DIRECTION ( 'NONE',  ( 1.000000000000000000, 0.000000000000000000, 0.000000000000000000 ) ) ;
#12 = EDGE_CURVE ( 'NONE', #190, #229, #90, .T. ) ;
#13 = ORIENTED_EDGE ( 'NONE', *, *, #240, .T. ) ;
#14 = PLANE ( 'NONE',  #85 ) ;
#15 = VERTEX_POINT ( 'NONE', #203 ) ;
#16 = APPLICATION_CONTEXT ( 'configuration controlled 3d designs of mechanical parts and assemblies' ) ;
#17 = CARTESIAN_POINT ( 'NONE',  ( -0.5000000000000000000, 0.000000000000000000, 100.0000000000000000 ) ) ;
#18 = CIRCLE ( 'NONE', #208, 1.250000000000000000 ) ;
#19 = CARTESIAN_POINT ( 'NONE',  ( 1.250000000000000000, 1.530808498934191571E-16, 1.199999999999999956 ) ) ;
#20 = APPROVAL ( #144, 'NEURÈENÝ' ) ;
#21 = DIRECTION ( 'NONE',  ( 1.000000000000000000, 0.000000000000000000, 0.000000000000000000 ) ) ;
#22 =( LENGTH_UNIT ( ) NAMED_UNIT ( * ) SI_UNIT ( .MILLI., .METRE. ) );
#23 = PERSON_AND_ORGANIZATION ( #83, #213 ) ;
#24 = DIRECTION ( 'NONE',  ( 0.000000000000000000, 0.000000000000000000, 1.000000000000000000 ) ) ;
#25 = PERSON_AND_ORGANIZATION ( #83, #213 ) ;
#26 = CIRCLE ( 'NONE', #100, 0.5000000000000000000 ) ;
#27 = COORDINATED_UNIVERSAL_TIME_OFFSET ( 1, 0, .AHEAD. ) ;
#28 = ORIENTED_EDGE ( 'NONE', *, *, #228, .F. ) ;
#29 = CC_DESIGN_APPROVAL ( #181, ( #33 ) ) ;
#30 = ORIENTED_EDGE ( 'NONE', *, *, #12, .F. ) ;
#31 = EDGE_LOOP ( 'NONE', ( #135, #249, #112, #28 ) ) ;
#32 = CARTESIAN_POINT ( 'NONE',  ( 0.000000000000000000, 0.000000000000000000, 1.199999999999999956 ) ) ;
#33 = SECURITY_CLASSIFICATION ( '', '', #5 ) ;
#34 = EDGE_LOOP ( 'NONE', ( #222, #153 ) ) ;
#35 = VERTEX_POINT ( 'NONE', #93 ) ;
#36 = CARTESIAN_POINT ( 'NONE',  ( -0.5000000000000000000, 0.000000000000000000, 100.0000000000000000 ) ) ;
#37 = ORIENTED_EDGE ( 'NONE', *, *, #133, .T. ) ;
#38 = AXIS2_PLACEMENT_3D ( 'NONE', #124, #24, #147 ) ;
#39 =( NAMED_UNIT ( * ) PLANE_ANGLE_UNIT ( ) SI_UNIT ( $, .RADIAN. ) );
#40 = UNCERTAINTY_MEASURE_WITH_UNIT (LENGTH_MEASURE( 1.000000000000000082E-05 ), #22, 'distance_accuracy_value', 'NONE');
#41 = LOCAL_TIME ( 15, 48, 44.00000000000000000, #88 ) ;
#42 = DATE_AND_TIME ( #86, #41 ) ;
#43 = EDGE_CURVE ( 'NONE', #35, #8, #168, .T. ) ;
#44 = DATE_TIME_ROLE ( 'creation_date' ) ;
#45 = PRODUCT_DEFINITION_SHAPE ( 'NONE', 'NONE',  #118 ) ;
#46 = APPROVAL_STATUS ( 'not_yet_approved' ) ;
#47 = AXIS2_PLACEMENT_3D ( 'NONE', #125, #104, #58 ) ;
#48 = APPLICATION_PROTOCOL_DEFINITION ( 'international standard', 'config_control_design', 1994, #154 ) ;
#49 = ORIENTED_EDGE ( 'NONE', *, *, #101, .F. ) ;
#50 = CARTESIAN_POINT ( 'NONE',  ( 0.5000000000000000000, 6.123233995736766036E-17, 100.0000000000000000 ) ) ;
#51 = AXIS2_PLACEMENT_3D ( 'NONE', #117, #207, #11 ) ;
#52 = EDGE_CURVE ( 'NONE', #165, #95, #244, .T. ) ;
#53 = FACE_OUTER_BOUND ( 'NONE', #34, .T. ) ;
#54 = CARTESIAN_POINT ( 'NONE',  ( -1.250000000000000000, 0.000000000000000000, 0.000000000000000000 ) ) ;
#55 = DIRECTION ( 'NONE',  ( -0.000000000000000000, -0.000000000000000000, -1.000000000000000000 ) ) ;
#56 = CLOSED_SHELL ( 'NONE', ( #216, #67, #110, #152, #223, #2, #127 ) ) ;
#57 = LINE ( 'NONE', #36, #230 ) ;
#58 = DIRECTION ( 'NONE',  ( 1.000000000000000000, 0.000000000000000000, -0.000000000000000000 ) ) ;
#59 = DIRECTION ( 'NONE',  ( 1.000000000000000000, 0.000000000000000000, -0.000000000000000000 ) ) ;
#60 = EDGE_LOOP ( 'NONE', ( #70, #99, #192, #37 ) ) ;
#61 = AXIS2_PLACEMENT_3D ( 'NONE', #122, #193, #235 ) ;
#62 = DIRECTION ( 'NONE',  ( 0.000000000000000000, 0.000000000000000000, 1.000000000000000000 ) ) ;
#63 = DATE_TIME_ROLE ( 'classification_date' ) ;
#64 = APPROVAL_ROLE ( '' ) ;
#65 = COORDINATED_UNIVERSAL_TIME_OFFSET ( 1, 0, .AHEAD. ) ;
#66 = PERSON_AND_ORGANIZATION ( #83, #213 ) ;
#67 = ADVANCED_FACE ( 'NONE', ( #206 ), #151, .T. ) ;
#68 = CC_DESIGN_SECURITY_CLASSIFICATION ( #33, ( #217 ) ) ;
#69 = APPROVAL ( #238, 'NEURÈENÝ' ) ;
#70 = ORIENTED_EDGE ( 'NONE', *, *, #92, .F. ) ;
#71 = ORIENTED_EDGE ( 'NONE', *, *, #52, .F. ) ;
#72 = DIRECTION ( 'NONE',  ( -1.000000000000000000, 0.000000000000000000, 0.000000000000000000 ) ) ;
#73 = DIRECTION ( 'NONE',  ( 1.000000000000000000, 0.000000000000000000, 0.000000000000000000 ) ) ;
#74 = ORIENTED_EDGE ( 'NONE', *, *, #92, .T. ) ;
#75 = DIRECTION ( 'NONE',  ( 1.000000000000000000, 0.000000000000000000, -0.000000000000000000 ) ) ;
#76 = FACE_BOUND ( 'NONE', #205, .T. ) ;
#77 = PLANE ( 'NONE',  #47 ) ;
#78 = DIRECTION ( 'NONE',  ( 0.000000000000000000, 0.000000000000000000, 1.000000000000000000 ) ) ;
#79 = AXIS2_PLACEMENT_3D ( 'NONE', #9, #166, #169 ) ;
#80 = CARTESIAN_POINT ( 'NONE',  ( 0.000000000000000000, 0.000000000000000000, 0.000000000000000000 ) ) ;
#81 = CC_DESIGN_PERSON_AND_ORGANIZATION_ASSIGNMENT ( #23, #178, ( #217 ) ) ;
#82 = DATE_AND_TIME ( #105, #204 ) ;
#83 = PERSON ( 'NEURÈENÝ', 'NEURÈENÝ', 'NEURÈENÝ', ('NEURÈENÝ'), ('NEURÈENÝ'), ('NEURÈENÝ') ) ;
#84 = APPROVAL_DATE_TIME ( #218, #181 ) ;
#85 = AXIS2_PLACEMENT_3D ( 'NONE', #98, #62, #59 ) ;
#86 = CALENDAR_DATE ( 2023, 31, 1 ) ;
#87 = CC_DESIGN_PERSON_AND_ORGANIZATION_ASSIGNMENT ( #237, #198, ( #118 ) ) ;
#88 = COORDINATED_UNIVERSAL_TIME_OFFSET ( 1, 0, .AHEAD. ) ;
#89 = DATE_AND_TIME ( #254, #107 ) ;
#90 = CIRCLE ( 'NONE', #51, 1.250000000000000000 ) ;
#91 = CYLINDRICAL_SURFACE ( 'NONE', #199, 1.250000000000000000 ) ;
#92 = EDGE_CURVE ( 'NONE', #15, #35, #115, .T. ) ;
#93 = CARTESIAN_POINT ( 'NONE',  ( 0.5000000000000000000, 6.123233995736766036E-17, 1.199999999999999956 ) ) ;
#94 = FACE_OUTER_BOUND ( 'NONE', #150, .T. ) ;
#95 = VERTEX_POINT ( 'NONE', #54 ) ;
#96 = AXIS2_PLACEMENT_3D ( 'NONE', #231, #234, #214 ) ;
#97 = DIRECTION ( 'NONE',  ( 1.000000000000000000, 0.000000000000000000, 0.000000000000000000 ) ) ;
#98 = CARTESIAN_POINT ( 'NONE',  ( 0.000000000000000000, 0.000000000000000000, 1.199999999999999956 ) ) ;
#99 = ORIENTED_EDGE ( 'NONE', *, *, #177, .F. ) ;
#100 = AXIS2_PLACEMENT_3D ( 'NONE', #172, #119, #21 ) ;
#101 = EDGE_CURVE ( 'NONE', #95, #165, #18, .T. ) ;
#102 = CARTESIAN_POINT ( 'NONE',  ( 0.000000000000000000, 0.000000000000000000, 100.0000000000000000 ) ) ;
#103 = DIRECTION ( 'NONE',  ( -0.000000000000000000, -0.000000000000000000, -1.000000000000000000 ) ) ;
#104 = DIRECTION ( 'NONE',  ( 0.000000000000000000, 0.000000000000000000, 1.000000000000000000 ) ) ;
#105 = CALENDAR_DATE ( 2023, 31, 1 ) ;
#106 = APPROVAL_ROLE ( '' ) ;
#107 = LOCAL_TIME ( 15, 48, 44.00000000000000000, #65 ) ;
#108 = APPROVAL_ROLE ( '' ) ;
#109 = CALENDAR_DATE ( 2023, 31, 1 ) ;
#110 = ADVANCED_FACE ( 'NONE', ( #94 ), #91, .T. ) ;
#111 = APPROVAL_PERSON_ORGANIZATION ( #162, #181, #106 ) ;
#112 = ORIENTED_EDGE ( 'NONE', *, *, #52, .T. ) ;
#113 = DIRECTION ( 'NONE',  ( -0.000000000000000000, -0.000000000000000000, -1.000000000000000000 ) ) ;
#114 = EDGE_LOOP ( 'NONE', ( #49, #71 ) ) ;
#115 = LINE ( 'NONE', #50, #202 ) ;
#116 = LOCAL_TIME ( 15, 48, 44.00000000000000000, #27 ) ;
#117 = CARTESIAN_POINT ( 'NONE',  ( 0.000000000000000000, 0.000000000000000000, 1.199999999999999956 ) ) ;
#118 = PRODUCT_DEFINITION ( 'NEZNÁMÝ', '', #217, #233 ) ;
#119 = DIRECTION ( 'NONE',  ( 0.000000000000000000, 0.000000000000000000, 1.000000000000000000 ) ) ;
#120 = CC_DESIGN_PERSON_AND_ORGANIZATION_ASSIGNMENT ( #160, #180, ( #33 ) ) ;
#121 = FACE_OUTER_BOUND ( 'NONE', #173, .T. ) ;
#122 = CARTESIAN_POINT ( 'NONE',  ( 0.000000000000000000, 0.000000000000000000, 1.199999999999999956 ) ) ;
#123 = ORIENTED_EDGE ( 'NONE', *, *, #228, .T. ) ;
#124 = CARTESIAN_POINT ( 'NONE',  ( 0.000000000000000000, 0.000000000000000000, 0.000000000000000000 ) ) ;
#125 = CARTESIAN_POINT ( 'NONE',  ( 0.000000000000000000, 0.000000000000000000, 100.0000000000000000 ) ) ;
#126 = CC_DESIGN_APPROVAL ( #20, ( #217 ) ) ;
#127 = ADVANCED_FACE ( 'NONE', ( #53 ), #77, .T. ) ;
#128 = CC_DESIGN_APPROVAL ( #69, ( #118 ) ) ;
#129 = ORIENTED_EDGE ( 'NONE', *, *, #101, .T. ) ;
#130 = AXIS2_PLACEMENT_3D ( 'NONE', #132, #55, #186 ) ;
#131 = ORIENTED_EDGE ( 'NONE', *, *, #141, .F. ) ;
#132 = CARTESIAN_POINT ( 'NONE',  ( 0.000000000000000000, 0.000000000000000000, 100.0000000000000000 ) ) ;
#133 = EDGE_CURVE ( 'NONE', #8, #35, #248, .T. ) ;
#134 = CARTESIAN_POINT ( 'NONE',  ( -0.5000000000000000000, 0.000000000000000000, 1.199999999999999956 ) ) ;
#135 = ORIENTED_EDGE ( 'NONE', *, *, #240, .F. ) ;
#136 = APPLICATION_PROTOCOL_DEFINITION ( 'international standard', 'config_control_design', 1994, #16 ) ;
#137 = CYLINDRICAL_SURFACE ( 'NONE', #184, 0.5000000000000000000 ) ;
#138 = APPROVAL_PERSON_ORGANIZATION ( #219, #20, #108 ) ;
#139 = FACE_OUTER_BOUND ( 'NONE', #245, .T. ) ;
#140 = LINE ( 'NONE', #19, #7 ) ;
#141 = EDGE_CURVE ( 'NONE', #15, #187, #26, .T. ) ;
#142 = APPROVAL_DATE_TIME ( #164, #20 ) ;
#143 = CIRCLE ( 'NONE', #96, 1.250000000000000000 ) ;
#144 = APPROVAL_STATUS ( 'not_yet_approved' ) ;
#145 = CALENDAR_DATE ( 2023, 31, 1 ) ;
#146 = AXIS2_PLACEMENT_3D ( 'NONE', #32, #191, #227 ) ;
#147 = DIRECTION ( 'NONE',  ( 1.000000000000000000, 0.000000000000000000, 0.000000000000000000 ) ) ;
#148 = ORIENTED_EDGE ( 'NONE', *, *, #183, .F. ) ;
#149 = ORIENTED_EDGE ( 'NONE', *, *, #12, .T. ) ;
#150 = EDGE_LOOP ( 'NONE', ( #226, #30, #123, #129 ) ) ;
#151 = CYLINDRICAL_SURFACE ( 'NONE', #146, 1.250000000000000000 ) ;
#152 = ADVANCED_FACE ( 'NONE', ( #76, #121 ), #14, .T. ) ;
#153 = ORIENTED_EDGE ( 'NONE', *, *, #141, .T. ) ;
#154 = APPLICATION_CONTEXT ( 'configuration controlled 3d designs of mechanical parts and assemblies' ) ;
#155 = ADVANCED_BREP_SHAPE_REPRESENTATION ( 'b118', ( #210, #38 ), #3 ) ;
#156 = CARTESIAN_POINT ( 'NONE',  ( -1.250000000000000000, 0.000000000000000000, 1.199999999999999956 ) ) ;
#157 = DIRECTION ( 'NONE',  ( -0.000000000000000000, -0.000000000000000000, -1.000000000000000000 ) ) ;
#158 = LINE ( 'NONE', #195, #225 ) ;
#159 = CC_DESIGN_PERSON_AND_ORGANIZATION_ASSIGNMENT ( #25, #179, ( #10 ) ) ;
#160 = PERSON_AND_ORGANIZATION ( #83, #213 ) ;
#161 = CIRCLE ( 'NONE', #188, 0.5000000000000000000 ) ;
#162 = PERSON_AND_ORGANIZATION ( #83, #213 ) ;
#163 = APPROVAL_DATE_TIME ( #89, #69 ) ;
#164 = DATE_AND_TIME ( #109, #116 ) ;
#165 = VERTEX_POINT ( 'NONE', #171 ) ;
#166 = DIRECTION ( 'NONE',  ( 0.000000000000000000, 0.000000000000000000, 1.000000000000000000 ) ) ;
#167 = FACE_OUTER_BOUND ( 'NONE', #60, .T. ) ;
#168 = CIRCLE ( 'NONE', #79, 0.5000000000000000000 ) ;
#169 = DIRECTION ( 'NONE',  ( 1.000000000000000000, 0.000000000000000000, 0.000000000000000000 ) ) ;
#170 = CARTESIAN_POINT ( 'NONE',  ( 0.000000000000000000, 0.000000000000000000, 0.000000000000000000 ) ) ;
#171 = CARTESIAN_POINT ( 'NONE',  ( 1.250000000000000000, 1.530808498934191571E-16, 0.000000000000000000 ) ) ;
#172 = CARTESIAN_POINT ( 'NONE',  ( 0.000000000000000000, 0.000000000000000000, 100.0000000000000000 ) ) ;
#173 = EDGE_LOOP ( 'NONE', ( #149, #13 ) ) ;
#174 = CARTESIAN_POINT ( 'NONE',  ( 0.000000000000000000, 0.000000000000000000, 100.0000000000000000 ) ) ;
#175 = DIRECTION ( 'NONE',  ( 0.000000000000000000, 0.000000000000000000, 1.000000000000000000 ) ) ;
#176 = LOCAL_TIME ( 15, 48, 44.00000000000000000, #4 ) ;
#177 = EDGE_CURVE ( 'NONE', #187, #15, #161, .T. ) ;
#178 = PERSON_AND_ORGANIZATION_ROLE ( 'design_supplier' ) ;
#179 = PERSON_AND_ORGANIZATION_ROLE ( 'design_owner' ) ;
#180 = PERSON_AND_ORGANIZATION_ROLE ( 'classification_officer' ) ;
#181 = APPROVAL ( #46, 'NEURÈENÝ' ) ;
#182 = SHAPE_DEFINITION_REPRESENTATION ( #45, #155 ) ;
#183 = EDGE_CURVE ( 'NONE', #187, #8, #57, .T. ) ;
#184 = AXIS2_PLACEMENT_3D ( 'NONE', #102, #247, #250 ) ;
#185 = ORIENTED_EDGE ( 'NONE', *, *, #133, .F. ) ;
#186 = DIRECTION ( 'NONE',  ( -1.000000000000000000, 0.000000000000000000, 0.000000000000000000 ) ) ;
#187 = VERTEX_POINT ( 'NONE', #17 ) ;
#188 = AXIS2_PLACEMENT_3D ( 'NONE', #174, #175, #196 ) ;
#189 = DIRECTION ( 'NONE',  ( 0.000000000000000000, 0.000000000000000000, 1.000000000000000000 ) ) ;
#190 = VERTEX_POINT ( 'NONE', #156 ) ;
#191 = DIRECTION ( 'NONE',  ( -0.000000000000000000, -0.000000000000000000, -1.000000000000000000 ) ) ;
#192 = ORIENTED_EDGE ( 'NONE', *, *, #183, .T. ) ;
#193 = DIRECTION ( 'NONE',  ( 0.000000000000000000, 0.000000000000000000, 1.000000000000000000 ) ) ;
#194 = AXIS2_PLACEMENT_3D ( 'NONE', #170, #224, #73 ) ;
#195 = CARTESIAN_POINT ( 'NONE',  ( -1.250000000000000000, 0.000000000000000000, 1.199999999999999956 ) ) ;
#196 = DIRECTION ( 'NONE',  ( 1.000000000000000000, 0.000000000000000000, 0.000000000000000000 ) ) ;
#197 = EDGE_CURVE ( 'NONE', #229, #165, #140, .T. ) ;
#198 = PERSON_AND_ORGANIZATION_ROLE ( 'creator' ) ;
#199 = AXIS2_PLACEMENT_3D ( 'NONE', #246, #243, #72 ) ;
#200 = CC_DESIGN_DATE_AND_TIME_ASSIGNMENT ( #42, #63, ( #33 ) ) ;
#201 = MECHANICAL_CONTEXT ( 'NONE', #16, 'mechanical' ) ;
#202 = VECTOR ( 'NONE', #113, 1000.000000000000000 ) ;
#203 = CARTESIAN_POINT ( 'NONE',  ( 0.5000000000000000000, 6.123233995736766036E-17, 100.0000000000000000 ) ) ;
#204 = LOCAL_TIME ( 15, 48, 44.00000000000000000, #255 ) ;
#205 = EDGE_LOOP ( 'NONE', ( #185, #232 ) ) ;
#206 = FACE_OUTER_BOUND ( 'NONE', #31, .T. ) ;
#207 = DIRECTION ( 'NONE',  ( 0.000000000000000000, 0.000000000000000000, 1.000000000000000000 ) ) ;
#208 = AXIS2_PLACEMENT_3D ( 'NONE', #209, #189, #97 ) ;
#209 = CARTESIAN_POINT ( 'NONE',  ( 0.000000000000000000, 0.000000000000000000, 0.000000000000000000 ) ) ;
#210 = MANIFOLD_SOLID_BREP ( 'Pøidat vysunutím3', #56 ) ;
#211 = CARTESIAN_POINT ( 'NONE',  ( 1.250000000000000000, 1.530808498934191571E-16, 1.199999999999999956 ) ) ;
#212 =( NAMED_UNIT ( * ) SI_UNIT ( $, .STERADIAN. ) SOLID_ANGLE_UNIT ( ) );
#213 = ORGANIZATION ( 'NEURÈENÝ', 'NEURÈENÝ', '' ) ;
#214 = DIRECTION ( 'NONE',  ( 1.000000000000000000, 0.000000000000000000, 0.000000000000000000 ) ) ;
#215 = FACE_OUTER_BOUND ( 'NONE', #114, .T. ) ;
#216 = ADVANCED_FACE ( 'NONE', ( #139 ), #137, .T. ) ;
#217 = PRODUCT_DEFINITION_FORMATION_WITH_SPECIFIED_SOURCE ( 'LIBOVOLNÝ', '', #10, .NOT_KNOWN. ) ;
#218 = DATE_AND_TIME ( #145, #176 ) ;
#219 = PERSON_AND_ORGANIZATION ( #83, #213 ) ;
#220 = PERSON_AND_ORGANIZATION_ROLE ( 'creator' ) ;
#221 = CC_DESIGN_PERSON_AND_ORGANIZATION_ASSIGNMENT ( #66, #220, ( #217 ) ) ;
#222 = ORIENTED_EDGE ( 'NONE', *, *, #177, .T. ) ;
#223 = ADVANCED_FACE ( 'NONE', ( #215 ), #251, .F. ) ;
#224 = DIRECTION ( 'NONE',  ( 0.000000000000000000, 0.000000000000000000, 1.000000000000000000 ) ) ;
#225 = VECTOR ( 'NONE', #157, 1000.000000000000000 ) ;
#226 = ORIENTED_EDGE ( 'NONE', *, *, #197, .F. ) ;
#227 = DIRECTION ( 'NONE',  ( -1.000000000000000000, 0.000000000000000000, 0.000000000000000000 ) ) ;
#228 = EDGE_CURVE ( 'NONE', #190, #95, #158, .T. ) ;
#229 = VERTEX_POINT ( 'NONE', #211 ) ;
#230 = VECTOR ( 'NONE', #252, 1000.000000000000000 ) ;
#231 = CARTESIAN_POINT ( 'NONE',  ( 0.000000000000000000, 0.000000000000000000, 1.199999999999999956 ) ) ;
#232 = ORIENTED_EDGE ( 'NONE', *, *, #43, .F. ) ;
#233 = DESIGN_CONTEXT ( 'detailed design', #154, 'design' ) ;
#234 = DIRECTION ( 'NONE',  ( 0.000000000000000000, 0.000000000000000000, 1.000000000000000000 ) ) ;
#235 = DIRECTION ( 'NONE',  ( 1.000000000000000000, 0.000000000000000000, 0.000000000000000000 ) ) ;
#236 = AXIS2_PLACEMENT_3D ( 'NONE', #80, #78, #75 ) ;
#237 = PERSON_AND_ORGANIZATION ( #83, #213 ) ;
#238 = APPROVAL_STATUS ( 'not_yet_approved' ) ;
#239 = PRODUCT_RELATED_PRODUCT_CATEGORY ( 'detail', '', ( #10 ) ) ;
#240 = EDGE_CURVE ( 'NONE', #229, #190, #143, .T. ) ;
#241 = ORIENTED_EDGE ( 'NONE', *, *, #43, .T. ) ;
#242 = CYLINDRICAL_SURFACE ( 'NONE', #130, 0.5000000000000000000 ) ;
#243 = DIRECTION ( 'NONE',  ( -0.000000000000000000, -0.000000000000000000, -1.000000000000000000 ) ) ;
#244 = CIRCLE ( 'NONE', #194, 1.250000000000000000 ) ;
#245 = EDGE_LOOP ( 'NONE', ( #131, #74, #241, #148 ) ) ;
#246 = CARTESIAN_POINT ( 'NONE',  ( 0.000000000000000000, 0.000000000000000000, 1.199999999999999956 ) ) ;
#247 = DIRECTION ( 'NONE',  ( -0.000000000000000000, -0.000000000000000000, -1.000000000000000000 ) ) ;
#248 = CIRCLE ( 'NONE', #61, 0.5000000000000000000 ) ;
#249 = ORIENTED_EDGE ( 'NONE', *, *, #197, .T. ) ;
#250 = DIRECTION ( 'NONE',  ( -1.000000000000000000, 0.000000000000000000, 0.000000000000000000 ) ) ;
#251 = PLANE ( 'NONE',  #236 ) ;
#252 = DIRECTION ( 'NONE',  ( -0.000000000000000000, -0.000000000000000000, -1.000000000000000000 ) ) ;
#253 = APPROVAL_PERSON_ORGANIZATION ( #1, #69, #64 ) ;
#254 = CALENDAR_DATE ( 2023, 31, 1 ) ;
#255 = COORDINATED_UNIVERSAL_TIME_OFFSET ( 1, 0, .AHEAD. ) ;
ENDSEC;
END-ISO-10303-21;
