ISO-10303-21;
HEADER;
FILE_DESCRIPTION (( 'STEP AP203' ),
    '1' );
FILE_NAME ('39e6.STEP',
    '2023-01-31T14:31:40',
    ( '' ),
    ( '' ),
    'SwSTEP 2.0',
    'SolidWorks 2019',
    '' );
FILE_SCHEMA (( 'CONFIG_CONTROL_DESIGN' ));
ENDSEC;

DATA;
#1 = EDGE_CURVE ( 'NONE', #150, #15, #8, .T. ) ;
#2 = ORIENTED_EDGE ( 'NONE', *, *, #245, .F. ) ;
#3 = CARTESIAN_POINT ( 'NONE',  ( 0.000000000000000000, 0.000000000000000000, 100.0000000000000000 ) ) ;
#4 = CARTESIAN_POINT ( 'NONE',  ( -1.250000000000000000, 0.000000000000000000, 1.199999999999999956 ) ) ;
#5 = CARTESIAN_POINT ( 'NONE',  ( 0.000000000000000000, 0.000000000000000000, 1.199999999999999956 ) ) ;
#6 = DIRECTION ( 'NONE',  ( 0.000000000000000000, 0.000000000000000000, 1.000000000000000000 ) ) ;
#7 = DIRECTION ( 'NONE',  ( 0.000000000000000000, 0.000000000000000000, 1.000000000000000000 ) ) ;
#8 = CIRCLE ( 'NONE', #91, 0.5000000000000000000 ) ;
#9 =( NAMED_UNIT ( * ) PLANE_ANGLE_UNIT ( ) SI_UNIT ( $, .RADIAN. ) );
#10 = AXIS2_PLACEMENT_3D ( 'NONE', #218, #40, #252 ) ;
#11 = CALENDAR_DATE ( 2023, 31, 1 ) ;
#12 = PRODUCT_DEFINITION_SHAPE ( 'NONE', 'NONE',  #23 ) ;
#13 = AXIS2_PLACEMENT_3D ( 'NONE', #243, #45, #18 ) ;
#14 = ORIENTED_EDGE ( 'NONE', *, *, #124, .F. ) ;
#15 = VERTEX_POINT ( 'NONE', #216 ) ;
#16 = DIRECTION ( 'NONE',  ( 0.000000000000000000, 0.000000000000000000, 1.000000000000000000 ) ) ;
#17 = DIRECTION ( 'NONE',  ( -0.000000000000000000, -0.000000000000000000, -1.000000000000000000 ) ) ;
#18 = DIRECTION ( 'NONE',  ( 1.000000000000000000, 0.000000000000000000, 0.000000000000000000 ) ) ;
#19 = CARTESIAN_POINT ( 'NONE',  ( 0.000000000000000000, 0.000000000000000000, 0.000000000000000000 ) ) ;
#20 = AXIS2_PLACEMENT_3D ( 'NONE', #5, #140, #24 ) ;
#21 = CARTESIAN_POINT ( 'NONE',  ( 0.000000000000000000, 0.000000000000000000, 1.199999999999999956 ) ) ;
#22 = APPROVAL_PERSON_ORGANIZATION ( #51, #105, #247 ) ;
#23 = PRODUCT_DEFINITION ( 'NEZNÁMÝ', '', #112, #234 ) ;
#24 = DIRECTION ( 'NONE',  ( 1.000000000000000000, 0.000000000000000000, 0.000000000000000000 ) ) ;
#25 = DATE_TIME_ROLE ( 'classification_date' ) ;
#26 = AXIS2_PLACEMENT_3D ( 'NONE', #82, #41, #197 ) ;
#27 = PERSON_AND_ORGANIZATION_ROLE ( 'design_owner' ) ;
#28 =( GEOMETRIC_REPRESENTATION_CONTEXT ( 3 ) GLOBAL_UNCERTAINTY_ASSIGNED_CONTEXT ( ( #125 ) ) GLOBAL_UNIT_ASSIGNED_CONTEXT ( ( #143, #9, #88 ) ) REPRESENTATION_CONTEXT ( 'NONE', 'WORKASPACE' ) );
#29 = DATE_TIME_ROLE ( 'creation_date' ) ;
#30 = PERSON_AND_ORGANIZATION ( #128, #241 ) ;
#31 = AXIS2_PLACEMENT_3D ( 'NONE', #236, #213, #136 ) ;
#32 = PERSON_AND_ORGANIZATION_ROLE ( 'design_supplier' ) ;
#33 = ORIENTED_EDGE ( 'NONE', *, *, #84, .F. ) ;
#34 = VERTEX_POINT ( 'NONE', #133 ) ;
#35 = EDGE_CURVE ( 'NONE', #147, #34, #44, .T. ) ;
#36 = CYLINDRICAL_SURFACE ( 'NONE', #71, 1.250000000000000000 ) ;
#37 = EDGE_LOOP ( 'NONE', ( #74, #131 ) ) ;
#38 = ORIENTED_EDGE ( 'NONE', *, *, #1, .F. ) ;
#39 = ADVANCED_FACE ( 'NONE', ( #165 ), #36, .T. ) ;
#40 = DIRECTION ( 'NONE',  ( -0.000000000000000000, -0.000000000000000000, -1.000000000000000000 ) ) ;
#41 = DIRECTION ( 'NONE',  ( -0.000000000000000000, -0.000000000000000000, -1.000000000000000000 ) ) ;
#42 = CARTESIAN_POINT ( 'NONE',  ( 1.250000000000000000, 1.530808498934191571E-16, 1.199999999999999956 ) ) ;
#43 = DIRECTION ( 'NONE',  ( -1.000000000000000000, 0.000000000000000000, 0.000000000000000000 ) ) ;
#44 = CIRCLE ( 'NONE', #31, 1.250000000000000000 ) ;
#45 = DIRECTION ( 'NONE',  ( 0.000000000000000000, 0.000000000000000000, 1.000000000000000000 ) ) ;
#46 = CALENDAR_DATE ( 2023, 31, 1 ) ;
#47 = EDGE_CURVE ( 'NONE', #147, #212, #110, .T. ) ;
#48 = PERSON_AND_ORGANIZATION_ROLE ( 'creator' ) ;
#49 = PERSON_AND_ORGANIZATION ( #128, #241 ) ;
#50 = CIRCLE ( 'NONE', #108, 0.5000000000000000000 ) ;
#51 = PERSON_AND_ORGANIZATION ( #128, #241 ) ;
#52 = ORIENTED_EDGE ( 'NONE', *, *, #70, .F. ) ;
#53 = AXIS2_PLACEMENT_3D ( 'NONE', #21, #61, #155 ) ;
#54 = APPROVAL_DATE_TIME ( #164, #185 ) ;
#55 = VERTEX_POINT ( 'NONE', #98 ) ;
#56 = ORIENTED_EDGE ( 'NONE', *, *, #124, .T. ) ;
#57 = APPROVAL_PERSON_ORGANIZATION ( #180, #185, #104 ) ;
#58 = EDGE_LOOP ( 'NONE', ( #229, #148, #170, #14 ) ) ;
#59 = LINE ( 'NONE', #238, #182 ) ;
#60 = LINE ( 'NONE', #102, #123 ) ;
#61 = DIRECTION ( 'NONE',  ( 0.000000000000000000, 0.000000000000000000, 1.000000000000000000 ) ) ;
#62 = EDGE_CURVE ( 'NONE', #212, #55, #103, .T. ) ;
#63 = PLANE ( 'NONE',  #250 ) ;
#64 = FACE_BOUND ( 'NONE', #113, .T. ) ;
#65 = PERSON_AND_ORGANIZATION_ROLE ( 'classification_officer' ) ;
#66 = LOCAL_TIME ( 15, 31, 40.00000000000000000, #226 ) ;
#67 = CALENDAR_DATE ( 2023, 31, 1 ) ;
#68 = PRODUCT ( '39e6', '39e6', '', ( #145 ) ) ;
#69 = APPROVAL_STATUS ( 'not_yet_approved' ) ;
#70 = EDGE_CURVE ( 'NONE', #55, #212, #159, .T. ) ;
#71 = AXIS2_PLACEMENT_3D ( 'NONE', #111, #254, #231 ) ;
#72 = PRODUCT_RELATED_PRODUCT_CATEGORY ( 'detail', '', ( #68 ) ) ;
#73 = CC_DESIGN_APPROVAL ( #185, ( #162 ) ) ;
#74 = ORIENTED_EDGE ( 'NONE', *, *, #35, .T. ) ;
#75 = EDGE_LOOP ( 'NONE', ( #192, #232, #191, #109 ) ) ;
#76 = ORIENTED_EDGE ( 'NONE', *, *, #95, .T. ) ;
#77 = ORIENTED_EDGE ( 'NONE', *, *, #188, .T. ) ;
#78 = LINE ( 'NONE', #42, #138 ) ;
#79 = PLANE ( 'NONE',  #53 ) ;
#80 = ADVANCED_FACE ( 'NONE', ( #242 ), #63, .T. ) ;
#81 = FACE_OUTER_BOUND ( 'NONE', #75, .T. ) ;
#82 = CARTESIAN_POINT ( 'NONE',  ( 0.000000000000000000, 0.000000000000000000, 1.199999999999999956 ) ) ;
#83 = APPROVAL_DATE_TIME ( #146, #230 ) ;
#84 = EDGE_CURVE ( 'NONE', #15, #150, #166, .T. ) ;
#85 = APPROVAL_STATUS ( 'not_yet_approved' ) ;
#86 = LOCAL_TIME ( 15, 31, 40.00000000000000000, #225 ) ;
#87 = PERSON_AND_ORGANIZATION_ROLE ( 'creator' ) ;
#88 =( NAMED_UNIT ( * ) SI_UNIT ( $, .STERADIAN. ) SOLID_ANGLE_UNIT ( ) );
#89 = ADVANCED_FACE ( 'NONE', ( #81 ), #154, .T. ) ;
#90 = DIRECTION ( 'NONE',  ( 1.000000000000000000, 0.000000000000000000, 0.000000000000000000 ) ) ;
#91 = AXIS2_PLACEMENT_3D ( 'NONE', #187, #16, #90 ) ;
#92 = EDGE_LOOP ( 'NONE', ( #115, #2, #56, #134 ) ) ;
#93 = CC_DESIGN_APPROVAL ( #230, ( #23 ) ) ;
#94 = DIRECTION ( 'NONE',  ( -0.000000000000000000, -0.000000000000000000, -1.000000000000000000 ) ) ;
#95 = EDGE_CURVE ( 'NONE', #34, #55, #78, .T. ) ;
#96 = ORIENTED_EDGE ( 'NONE', *, *, #62, .F. ) ;
#97 = DIRECTION ( 'NONE',  ( -0.000000000000000000, -0.000000000000000000, -1.000000000000000000 ) ) ;
#98 = CARTESIAN_POINT ( 'NONE',  ( 1.250000000000000000, 1.530808498934191571E-16, 0.000000000000000000 ) ) ;
#99 = PLANE ( 'NONE',  #209 ) ;
#100 = CARTESIAN_POINT ( 'NONE',  ( -0.5000000000000000000, 0.000000000000000000, 100.0000000000000000 ) ) ;
#101 = CIRCLE ( 'NONE', #168, 1.250000000000000000 ) ;
#102 = CARTESIAN_POINT ( 'NONE',  ( -0.5000000000000000000, 0.000000000000000000, 100.0000000000000000 ) ) ;
#103 = CIRCLE ( 'NONE', #199, 1.250000000000000000 ) ;
#104 = APPROVAL_ROLE ( '' ) ;
#105 = APPROVAL ( #69, 'NEURÈENÝ' ) ;
#106 = DATE_AND_TIME ( #204, #66 ) ;
#107 = DATE_AND_TIME ( #67, #201 ) ;
#108 = AXIS2_PLACEMENT_3D ( 'NONE', #177, #120, #202 ) ;
#109 = ORIENTED_EDGE ( 'NONE', *, *, #62, .T. ) ;
#110 = LINE ( 'NONE', #189, #181 ) ;
#111 = CARTESIAN_POINT ( 'NONE',  ( 0.000000000000000000, 0.000000000000000000, 1.199999999999999956 ) ) ;
#112 = PRODUCT_DEFINITION_FORMATION_WITH_SPECIFIED_SOURCE ( 'LIBOVOLNÝ', '', #68, .NOT_KNOWN. ) ;
#113 = EDGE_LOOP ( 'NONE', ( #33, #38 ) ) ;
#114 = ADVANCED_FACE ( 'NONE', ( #194 ), #99, .F. ) ;
#115 = ORIENTED_EDGE ( 'NONE', *, *, #149, .F. ) ;
#116 = SHAPE_DEFINITION_REPRESENTATION ( #12, #217 ) ;
#117 = DIRECTION ( 'NONE',  ( 1.000000000000000000, 0.000000000000000000, 0.000000000000000000 ) ) ;
#118 = CARTESIAN_POINT ( 'NONE',  ( 0.000000000000000000, 0.000000000000000000, 0.000000000000000000 ) ) ;
#119 = CARTESIAN_POINT ( 'NONE',  ( 0.5000000000000000000, 6.123233995736766036E-17, 100.0000000000000000 ) ) ;
#120 = DIRECTION ( 'NONE',  ( 0.000000000000000000, 0.000000000000000000, 1.000000000000000000 ) ) ;
#121 = DATE_AND_TIME ( #46, #86 ) ;
#122 = APPLICATION_PROTOCOL_DEFINITION ( 'international standard', 'config_control_design', 1994, #178 ) ;
#123 = VECTOR ( 'NONE', #17, 1000.000000000000000 ) ;
#124 = EDGE_CURVE ( 'NONE', #233, #15, #60, .T. ) ;
#125 = UNCERTAINTY_MEASURE_WITH_UNIT (LENGTH_MEASURE( 1.000000000000000082E-05 ), #143, 'distance_accuracy_value', 'NONE');
#126 = CC_DESIGN_SECURITY_CLASSIFICATION ( #162, ( #112 ) ) ;
#127 = DIRECTION ( 'NONE',  ( 0.000000000000000000, 0.000000000000000000, 1.000000000000000000 ) ) ;
#128 = PERSON ( 'NEURÈENÝ', 'NEURÈENÝ', 'NEURÈENÝ', ('NEURÈENÝ'), ('NEURÈENÝ'), ('NEURÈENÝ') ) ;
#129 = PERSON_AND_ORGANIZATION ( #128, #241 ) ;
#130 = CC_DESIGN_PERSON_AND_ORGANIZATION_ASSIGNMENT ( #129, #48, ( #112 ) ) ;
#131 = ORIENTED_EDGE ( 'NONE', *, *, #248, .T. ) ;
#132 = ORIENTED_EDGE ( 'NONE', *, *, #47, .F. ) ;
#133 = CARTESIAN_POINT ( 'NONE',  ( 1.250000000000000000, 1.530808498934191571E-16, 1.199999999999999956 ) ) ;
#134 = ORIENTED_EDGE ( 'NONE', *, *, #84, .T. ) ;
#135 = LOCAL_TIME ( 15, 31, 40.00000000000000000, #161 ) ;
#136 = DIRECTION ( 'NONE',  ( 1.000000000000000000, 0.000000000000000000, 0.000000000000000000 ) ) ;
#137 = CYLINDRICAL_SURFACE ( 'NONE', #10, 0.5000000000000000000 ) ;
#138 = VECTOR ( 'NONE', #222, 1000.000000000000000 ) ;
#139 = DIRECTION ( 'NONE',  ( -0.000000000000000000, -0.000000000000000000, -1.000000000000000000 ) ) ;
#140 = DIRECTION ( 'NONE',  ( 0.000000000000000000, 0.000000000000000000, 1.000000000000000000 ) ) ;
#141 = CYLINDRICAL_SURFACE ( 'NONE', #224, 0.5000000000000000000 ) ;
#142 = DIRECTION ( 'NONE',  ( 1.000000000000000000, 0.000000000000000000, 0.000000000000000000 ) ) ;
#143 =( LENGTH_UNIT ( ) NAMED_UNIT ( * ) SI_UNIT ( .MILLI., .METRE. ) );
#144 = CC_DESIGN_PERSON_AND_ORGANIZATION_ASSIGNMENT ( #49, #27, ( #68 ) ) ;
#145 = MECHANICAL_CONTEXT ( 'NONE', #178, 'mechanical' ) ;
#146 = DATE_AND_TIME ( #228, #135 ) ;
#147 = VERTEX_POINT ( 'NONE', #4 ) ;
#148 = ORIENTED_EDGE ( 'NONE', *, *, #149, .T. ) ;
#149 = EDGE_CURVE ( 'NONE', #214, #150, #59, .T. ) ;
#150 = VERTEX_POINT ( 'NONE', #176 ) ;
#151 = EDGE_LOOP ( 'NONE', ( #255, #77 ) ) ;
#152 = LOCAL_TIME ( 15, 31, 40.00000000000000000, #183 ) ;
#153 = DIRECTION ( 'NONE',  ( 1.000000000000000000, 0.000000000000000000, 0.000000000000000000 ) ) ;
#154 = CYLINDRICAL_SURFACE ( 'NONE', #26, 1.250000000000000000 ) ;
#155 = DIRECTION ( 'NONE',  ( 1.000000000000000000, 0.000000000000000000, -0.000000000000000000 ) ) ;
#156 = DIRECTION ( 'NONE',  ( 1.000000000000000000, 0.000000000000000000, -0.000000000000000000 ) ) ;
#157 = DIRECTION ( 'NONE',  ( 0.000000000000000000, 0.000000000000000000, 1.000000000000000000 ) ) ;
#158 = PERSON_AND_ORGANIZATION ( #128, #241 ) ;
#159 = CIRCLE ( 'NONE', #172, 1.250000000000000000 ) ;
#160 = PERSON_AND_ORGANIZATION ( #128, #241 ) ;
#161 = COORDINATED_UNIVERSAL_TIME_OFFSET ( 1, 0, .AHEAD. ) ;
#162 = SECURITY_CLASSIFICATION ( '', '', #186 ) ;
#163 = APPLICATION_CONTEXT ( 'configuration controlled 3d designs of mechanical parts and assemblies' ) ;
#164 = DATE_AND_TIME ( #11, #152 ) ;
#165 = FACE_OUTER_BOUND ( 'NONE', #167, .T. ) ;
#166 = CIRCLE ( 'NONE', #20, 0.5000000000000000000 ) ;
#167 = EDGE_LOOP ( 'NONE', ( #210, #76, #173, #132 ) ) ;
#168 = AXIS2_PLACEMENT_3D ( 'NONE', #179, #7, #153 ) ;
#169 = ADVANCED_FACE ( 'NONE', ( #174 ), #141, .T. ) ;
#170 = ORIENTED_EDGE ( 'NONE', *, *, #1, .T. ) ;
#171 = EDGE_LOOP ( 'NONE', ( #96, #52 ) ) ;
#172 = AXIS2_PLACEMENT_3D ( 'NONE', #19, #157, #142 ) ;
#173 = ORIENTED_EDGE ( 'NONE', *, *, #70, .T. ) ;
#174 = FACE_OUTER_BOUND ( 'NONE', #58, .T. ) ;
#175 = DIRECTION ( 'NONE',  ( 1.000000000000000000, 0.000000000000000000, -0.000000000000000000 ) ) ;
#176 = CARTESIAN_POINT ( 'NONE',  ( 0.5000000000000000000, 6.123233995736766036E-17, 1.199999999999999956 ) ) ;
#177 = CARTESIAN_POINT ( 'NONE',  ( 0.000000000000000000, 0.000000000000000000, 100.0000000000000000 ) ) ;
#178 = APPLICATION_CONTEXT ( 'configuration controlled 3d designs of mechanical parts and assemblies' ) ;
#179 = CARTESIAN_POINT ( 'NONE',  ( 0.000000000000000000, 0.000000000000000000, 1.199999999999999956 ) ) ;
#180 = PERSON_AND_ORGANIZATION ( #128, #241 ) ;
#181 = VECTOR ( 'NONE', #94, 1000.000000000000000 ) ;
#182 = VECTOR ( 'NONE', #97, 1000.000000000000000 ) ;
#183 = COORDINATED_UNIVERSAL_TIME_OFFSET ( 1, 0, .AHEAD. ) ;
#184 = COORDINATED_UNIVERSAL_TIME_OFFSET ( 1, 0, .AHEAD. ) ;
#185 = APPROVAL ( #85, 'NEURÈENÝ' ) ;
#186 = SECURITY_CLASSIFICATION_LEVEL ( 'unclassified' ) ;
#187 = CARTESIAN_POINT ( 'NONE',  ( 0.000000000000000000, 0.000000000000000000, 1.199999999999999956 ) ) ;
#188 = EDGE_CURVE ( 'NONE', #214, #233, #215, .T. ) ;
#189 = CARTESIAN_POINT ( 'NONE',  ( -1.250000000000000000, 0.000000000000000000, 1.199999999999999956 ) ) ;
#190 = APPROVAL_PERSON_ORGANIZATION ( #227, #230, #205 ) ;
#191 = ORIENTED_EDGE ( 'NONE', *, *, #47, .T. ) ;
#192 = ORIENTED_EDGE ( 'NONE', *, *, #95, .F. ) ;
#193 = CC_DESIGN_PERSON_AND_ORGANIZATION_ASSIGNMENT ( #160, #32, ( #112 ) ) ;
#194 = FACE_OUTER_BOUND ( 'NONE', #171, .T. ) ;
#195 = CC_DESIGN_APPROVAL ( #105, ( #112 ) ) ;
#196 = CARTESIAN_POINT ( 'NONE',  ( -1.250000000000000000, 0.000000000000000000, 0.000000000000000000 ) ) ;
#197 = DIRECTION ( 'NONE',  ( -1.000000000000000000, 0.000000000000000000, 0.000000000000000000 ) ) ;
#198 = CC_DESIGN_PERSON_AND_ORGANIZATION_ASSIGNMENT ( #30, #87, ( #23 ) ) ;
#199 = AXIS2_PLACEMENT_3D ( 'NONE', #118, #223, #117 ) ;
#200 = FACE_OUTER_BOUND ( 'NONE', #37, .T. ) ;
#201 = LOCAL_TIME ( 15, 31, 40.00000000000000000, #184 ) ;
#202 = DIRECTION ( 'NONE',  ( 1.000000000000000000, 0.000000000000000000, 0.000000000000000000 ) ) ;
#203 = CC_DESIGN_PERSON_AND_ORGANIZATION_ASSIGNMENT ( #158, #65, ( #162 ) ) ;
#204 = CALENDAR_DATE ( 2023, 31, 1 ) ;
#205 = APPROVAL_ROLE ( '' ) ;
#206 = APPLICATION_PROTOCOL_DEFINITION ( 'international standard', 'config_control_design', 1994, #163 ) ;
#207 = APPROVAL_STATUS ( 'not_yet_approved' ) ;
#208 = APPROVAL_DATE_TIME ( #107, #105 ) ;
#209 = AXIS2_PLACEMENT_3D ( 'NONE', #219, #6, #175 ) ;
#210 = ORIENTED_EDGE ( 'NONE', *, *, #248, .F. ) ;
#211 = CC_DESIGN_DATE_AND_TIME_ASSIGNMENT ( #121, #25, ( #162 ) ) ;
#212 = VERTEX_POINT ( 'NONE', #196 ) ;
#213 = DIRECTION ( 'NONE',  ( 0.000000000000000000, 0.000000000000000000, 1.000000000000000000 ) ) ;
#214 = VERTEX_POINT ( 'NONE', #119 ) ;
#215 = CIRCLE ( 'NONE', #13, 0.5000000000000000000 ) ;
#216 = CARTESIAN_POINT ( 'NONE',  ( -0.5000000000000000000, 0.000000000000000000, 1.199999999999999956 ) ) ;
#217 = ADVANCED_BREP_SHAPE_REPRESENTATION ( '39e6', ( #239, #251 ), #28 ) ;
#218 = CARTESIAN_POINT ( 'NONE',  ( 0.000000000000000000, 0.000000000000000000, 100.0000000000000000 ) ) ;
#219 = CARTESIAN_POINT ( 'NONE',  ( 0.000000000000000000, 0.000000000000000000, 0.000000000000000000 ) ) ;
#220 = ADVANCED_FACE ( 'NONE', ( #64, #200 ), #79, .T. ) ;
#221 = CARTESIAN_POINT ( 'NONE',  ( 0.000000000000000000, 0.000000000000000000, 100.0000000000000000 ) ) ;
#222 = DIRECTION ( 'NONE',  ( -0.000000000000000000, -0.000000000000000000, -1.000000000000000000 ) ) ;
#223 = DIRECTION ( 'NONE',  ( 0.000000000000000000, 0.000000000000000000, 1.000000000000000000 ) ) ;
#224 = AXIS2_PLACEMENT_3D ( 'NONE', #3, #139, #43 ) ;
#225 = COORDINATED_UNIVERSAL_TIME_OFFSET ( 1, 0, .AHEAD. ) ;
#226 = COORDINATED_UNIVERSAL_TIME_OFFSET ( 1, 0, .AHEAD. ) ;
#227 = PERSON_AND_ORGANIZATION ( #128, #241 ) ;
#228 = CALENDAR_DATE ( 2023, 31, 1 ) ;
#229 = ORIENTED_EDGE ( 'NONE', *, *, #188, .F. ) ;
#230 = APPROVAL ( #207, 'NEURÈENÝ' ) ;
#231 = DIRECTION ( 'NONE',  ( -1.000000000000000000, 0.000000000000000000, 0.000000000000000000 ) ) ;
#232 = ORIENTED_EDGE ( 'NONE', *, *, #35, .F. ) ;
#233 = VERTEX_POINT ( 'NONE', #100 ) ;
#234 = DESIGN_CONTEXT ( 'detailed design', #163, 'design' ) ;
#235 = CC_DESIGN_DATE_AND_TIME_ASSIGNMENT ( #106, #29, ( #23 ) ) ;
#236 = CARTESIAN_POINT ( 'NONE',  ( 0.000000000000000000, 0.000000000000000000, 1.199999999999999956 ) ) ;
#237 = FACE_OUTER_BOUND ( 'NONE', #92, .T. ) ;
#238 = CARTESIAN_POINT ( 'NONE',  ( 0.5000000000000000000, 6.123233995736766036E-17, 100.0000000000000000 ) ) ;
#239 = MANIFOLD_SOLID_BREP ( 'Pøidat vysunutím3', #244 ) ;
#240 = DIRECTION ( 'NONE',  ( 0.000000000000000000, 0.000000000000000000, 1.000000000000000000 ) ) ;
#241 = ORGANIZATION ( 'NEURÈENÝ', 'NEURÈENÝ', '' ) ;
#242 = FACE_OUTER_BOUND ( 'NONE', #151, .T. ) ;
#243 = CARTESIAN_POINT ( 'NONE',  ( 0.000000000000000000, 0.000000000000000000, 100.0000000000000000 ) ) ;
#244 = CLOSED_SHELL ( 'NONE', ( #169, #39, #89, #220, #114, #253, #80 ) ) ;
#245 = EDGE_CURVE ( 'NONE', #233, #214, #50, .T. ) ;
#246 = DIRECTION ( 'NONE',  ( 1.000000000000000000, 0.000000000000000000, 0.000000000000000000 ) ) ;
#247 = APPROVAL_ROLE ( '' ) ;
#248 = EDGE_CURVE ( 'NONE', #34, #147, #101, .T. ) ;
#249 = CARTESIAN_POINT ( 'NONE',  ( 0.000000000000000000, 0.000000000000000000, 0.000000000000000000 ) ) ;
#250 = AXIS2_PLACEMENT_3D ( 'NONE', #221, #240, #156 ) ;
#251 = AXIS2_PLACEMENT_3D ( 'NONE', #249, #127, #246 ) ;
#252 = DIRECTION ( 'NONE',  ( -1.000000000000000000, 0.000000000000000000, 0.000000000000000000 ) ) ;
#253 = ADVANCED_FACE ( 'NONE', ( #237 ), #137, .T. ) ;
#254 = DIRECTION ( 'NONE',  ( -0.000000000000000000, -0.000000000000000000, -1.000000000000000000 ) ) ;
#255 = ORIENTED_EDGE ( 'NONE', *, *, #245, .T. ) ;
ENDSEC;
END-ISO-10303-21;
