ISO-10303-21;
HEADER;
FILE_DESCRIPTION (( 'STEP AP203' ),
    '1' );
FILE_NAME ('db91.STEP',
    '2023-01-31T09:59:39',
    ( '' ),
    ( '' ),
    'SwSTEP 2.0',
    'SolidWorks 2019',
    '' );
FILE_SCHEMA (( 'CONFIG_CONTROL_DESIGN' ));
ENDSEC;

DATA;
#1 = VERTEX_POINT ( 'NONE', #237 ) ;
#2 = EDGE_LOOP ( 'NONE', ( #198, #16, #159, #178 ) ) ;
#3 = EDGE_CURVE ( 'NONE', #116, #255, #197, .T. ) ;
#4 = CALENDAR_DATE ( 2023, 31, 1 ) ;
#5 = DIRECTION ( 'NONE',  ( 0.000000000000000000, 0.000000000000000000, 1.000000000000000000 ) ) ;
#6 = LINE ( 'NONE', #120, #208 ) ;
#7 = CALENDAR_DATE ( 2023, 31, 1 ) ;
#8 = LOCAL_TIME ( 10, 59, 39.00000000000000000, #205 ) ;
#9 = FACE_OUTER_BOUND ( 'NONE', #238, .T. ) ;
#10 = DIRECTION ( 'NONE',  ( 0.000000000000000000, 0.000000000000000000, 1.000000000000000000 ) ) ;
#11 = APPROVAL_STATUS ( 'not_yet_approved' ) ;
#12 = CYLINDRICAL_SURFACE ( 'NONE', #190, 1.250000000000000000 ) ;
#13 = APPLICATION_CONTEXT ( 'configuration controlled 3d designs of mechanical parts and assemblies' ) ;
#14 = EDGE_CURVE ( 'NONE', #255, #59, #150, .T. ) ;
#15 = CARTESIAN_POINT ( 'NONE',  ( 0.5000000000000000000, 6.123233995736766036E-17, 100.0000000000000000 ) ) ;
#16 = ORIENTED_EDGE ( 'NONE', *, *, #72, .F. ) ;
#17 = EDGE_CURVE ( 'NONE', #160, #1, #95, .T. ) ;
#18 = ORIENTED_EDGE ( 'NONE', *, *, #62, .T. ) ;
#19 = CIRCLE ( 'NONE', #143, 1.250000000000000000 ) ;
#20 = CARTESIAN_POINT ( 'NONE',  ( 0.5000000000000000000, 6.123233995736766036E-17, 100.0000000000000000 ) ) ;
#21 = LOCAL_TIME ( 10, 59, 39.00000000000000000, #67 ) ;
#22 = FACE_BOUND ( 'NONE', #216, .T. ) ;
#23 = PERSON_AND_ORGANIZATION ( #175, #141 ) ;
#24 = PRODUCT_RELATED_PRODUCT_CATEGORY ( 'detail', '', ( #36 ) ) ;
#25 = CARTESIAN_POINT ( 'NONE',  ( 0.000000000000000000, 0.000000000000000000, 100.0000000000000000 ) ) ;
#26 = EDGE_CURVE ( 'NONE', #116, #236, #71, .T. ) ;
#27 = COORDINATED_UNIVERSAL_TIME_OFFSET ( 1, 0, .AHEAD. ) ;
#28 = DIRECTION ( 'NONE',  ( 0.000000000000000000, 0.000000000000000000, 1.000000000000000000 ) ) ;
#29 = CALENDAR_DATE ( 2023, 31, 1 ) ;
#30 = DIRECTION ( 'NONE',  ( 1.000000000000000000, 0.000000000000000000, -0.000000000000000000 ) ) ;
#31 = CIRCLE ( 'NONE', #201, 1.250000000000000000 ) ;
#32 = DATE_TIME_ROLE ( 'creation_date' ) ;
#33 = APPLICATION_PROTOCOL_DEFINITION ( 'international standard', 'config_control_design', 1994, #247 ) ;
#34 = ADVANCED_BREP_SHAPE_REPRESENTATION ( 'db91', ( #57, #105 ), #187 ) ;
#35 = ADVANCED_FACE ( 'NONE', ( #9 ), #103, .T. ) ;
#36 = PRODUCT ( 'db91', 'db91', '', ( #203 ) ) ;
#37 = ORIENTED_EDGE ( 'NONE', *, *, #26, .F. ) ;
#38 = EDGE_LOOP ( 'NONE', ( #94, #199 ) ) ;
#39 = ORIENTED_EDGE ( 'NONE', *, *, #14, .F. ) ;
#40 = EDGE_CURVE ( 'NONE', #59, #255, #158, .T. ) ;
#41 = APPROVAL_DATE_TIME ( #64, #240 ) ;
#42 = DIRECTION ( 'NONE',  ( -1.000000000000000000, 0.000000000000000000, 0.000000000000000000 ) ) ;
#43 = APPROVAL_DATE_TIME ( #148, #138 ) ;
#44 = ADVANCED_FACE ( 'NONE', ( #242 ), #167, .T. ) ;
#45 = PRODUCT_DEFINITION_SHAPE ( 'NONE', 'NONE',  #142 ) ;
#46 = PERSON_AND_ORGANIZATION_ROLE ( 'creator' ) ;
#47 = DIRECTION ( 'NONE',  ( 1.000000000000000000, 0.000000000000000000, 0.000000000000000000 ) ) ;
#48 = SECURITY_CLASSIFICATION_LEVEL ( 'unclassified' ) ;
#49 = DIRECTION ( 'NONE',  ( 0.000000000000000000, 0.000000000000000000, 1.000000000000000000 ) ) ;
#50 = CALENDAR_DATE ( 2023, 31, 1 ) ;
#51 = AXIS2_PLACEMENT_3D ( 'NONE', #245, #28, #186 ) ;
#52 = DIRECTION ( 'NONE',  ( -0.000000000000000000, -0.000000000000000000, -1.000000000000000000 ) ) ;
#53 = DIRECTION ( 'NONE',  ( -0.000000000000000000, -0.000000000000000000, -1.000000000000000000 ) ) ;
#54 = LOCAL_TIME ( 10, 59, 39.00000000000000000, #227 ) ;
#55 = CARTESIAN_POINT ( 'NONE',  ( 0.000000000000000000, 0.000000000000000000, 0.000000000000000000 ) ) ;
#56 = AXIS2_PLACEMENT_3D ( 'NONE', #25, #184, #204 ) ;
#57 = MANIFOLD_SOLID_BREP ( 'Pøidat vysunutím3', #177 ) ;
#58 = CC_DESIGN_PERSON_AND_ORGANIZATION_ASSIGNMENT ( #70, #46, ( #142 ) ) ;
#59 = VERTEX_POINT ( 'NONE', #129 ) ;
#60 = EDGE_LOOP ( 'NONE', ( #161, #114 ) ) ;
#61 = ORIENTED_EDGE ( 'NONE', *, *, #62, .F. ) ;
#62 = EDGE_CURVE ( 'NONE', #1, #160, #19, .T. ) ;
#63 = CC_DESIGN_APPROVAL ( #240, ( #192 ) ) ;
#64 = DATE_AND_TIME ( #4, #21 ) ;
#65 = DIRECTION ( 'NONE',  ( 0.000000000000000000, 0.000000000000000000, 1.000000000000000000 ) ) ;
#66 = CC_DESIGN_DATE_AND_TIME_ASSIGNMENT ( #188, #243, ( #192 ) ) ;
#67 = COORDINATED_UNIVERSAL_TIME_OFFSET ( 1, 0, .AHEAD. ) ;
#68 = DIRECTION ( 'NONE',  ( 1.000000000000000000, 0.000000000000000000, 0.000000000000000000 ) ) ;
#69 = EDGE_CURVE ( 'NONE', #81, #181, #31, .T. ) ;
#70 = PERSON_AND_ORGANIZATION ( #175, #141 ) ;
#71 = CIRCLE ( 'NONE', #101, 0.5000000000000000000 ) ;
#72 = EDGE_CURVE ( 'NONE', #236, #116, #88, .T. ) ;
#73 = PERSON_AND_ORGANIZATION ( #175, #141 ) ;
#74 = DIRECTION ( 'NONE',  ( 0.000000000000000000, 0.000000000000000000, 1.000000000000000000 ) ) ;
#75 = DIRECTION ( 'NONE',  ( 1.000000000000000000, 0.000000000000000000, -0.000000000000000000 ) ) ;
#76 = CC_DESIGN_PERSON_AND_ORGANIZATION_ASSIGNMENT ( #108, #106, ( #231 ) ) ;
#77 = DIRECTION ( 'NONE',  ( 1.000000000000000000, 0.000000000000000000, 0.000000000000000000 ) ) ;
#78 = AXIS2_PLACEMENT_3D ( 'NONE', #229, #74, #75 ) ;
#79 = AXIS2_PLACEMENT_3D ( 'NONE', #86, #164, #68 ) ;
#80 = EDGE_LOOP ( 'NONE', ( #220, #82, #137, #179 ) ) ;
#81 = VERTEX_POINT ( 'NONE', #223 ) ;
#82 = ORIENTED_EDGE ( 'NONE', *, *, #217, .T. ) ;
#83 = ADVANCED_FACE ( 'NONE', ( #22, #90 ), #89, .T. ) ;
#84 = SHAPE_DEFINITION_REPRESENTATION ( #45, #34 ) ;
#85 = CARTESIAN_POINT ( 'NONE',  ( 0.000000000000000000, 0.000000000000000000, 1.199999999999999956 ) ) ;
#86 = CARTESIAN_POINT ( 'NONE',  ( 0.000000000000000000, 0.000000000000000000, 1.199999999999999956 ) ) ;
#87 = CARTESIAN_POINT ( 'NONE',  ( 0.000000000000000000, 0.000000000000000000, 1.199999999999999956 ) ) ;
#88 = CIRCLE ( 'NONE', #235, 0.5000000000000000000 ) ;
#89 = PLANE ( 'NONE',  #119 ) ;
#90 = FACE_OUTER_BOUND ( 'NONE', #60, .T. ) ;
#91 = DIRECTION ( 'NONE',  ( -0.000000000000000000, -0.000000000000000000, -1.000000000000000000 ) ) ;
#92 = ADVANCED_FACE ( 'NONE', ( #222 ), #12, .T. ) ;
#93 = CARTESIAN_POINT ( 'NONE',  ( 1.250000000000000000, 1.530808498934191571E-16, 0.000000000000000000 ) ) ;
#94 = ORIENTED_EDGE ( 'NONE', *, *, #72, .T. ) ;
#95 = CIRCLE ( 'NONE', #214, 1.250000000000000000 ) ;
#96 = DIRECTION ( 'NONE',  ( -0.000000000000000000, -0.000000000000000000, -1.000000000000000000 ) ) ;
#97 = ORIENTED_EDGE ( 'NONE', *, *, #14, .T. ) ;
#98 = APPROVAL_PERSON_ORGANIZATION ( #73, #140, #163 ) ;
#99 = ORIENTED_EDGE ( 'NONE', *, *, #17, .F. ) ;
#100 = CC_DESIGN_PERSON_AND_ORGANIZATION_ASSIGNMENT ( #23, #152, ( #192 ) ) ;
#101 = AXIS2_PLACEMENT_3D ( 'NONE', #169, #183, #154 ) ;
#102 = EDGE_CURVE ( 'NONE', #81, #1, #6, .T. ) ;
#103 = CYLINDRICAL_SURFACE ( 'NONE', #56, 0.5000000000000000000 ) ;
#104 = APPLICATION_PROTOCOL_DEFINITION ( 'international standard', 'config_control_design', 1994, #13 ) ;
#105 = AXIS2_PLACEMENT_3D ( 'NONE', #174, #254, #77 ) ;
#106 = PERSON_AND_ORGANIZATION_ROLE ( 'design_supplier' ) ;
#107 = CARTESIAN_POINT ( 'NONE',  ( 0.000000000000000000, 0.000000000000000000, 1.199999999999999956 ) ) ;
#108 = PERSON_AND_ORGANIZATION ( #175, #141 ) ;
#109 = AXIS2_PLACEMENT_3D ( 'NONE', #87, #5, #191 ) ;
#110 = PERSON_AND_ORGANIZATION_ROLE ( 'creator' ) ;
#111 = DESIGN_CONTEXT ( 'detailed design', #13, 'design' ) ;
#112 = FACE_OUTER_BOUND ( 'NONE', #239, .T. ) ;
#113 =( NAMED_UNIT ( * ) PLANE_ANGLE_UNIT ( ) SI_UNIT ( $, .RADIAN. ) );
#114 = ORIENTED_EDGE ( 'NONE', *, *, #123, .T. ) ;
#115 = ORIENTED_EDGE ( 'NONE', *, *, #102, .T. ) ;
#116 = VERTEX_POINT ( 'NONE', #20 ) ;
#117 = ORIENTED_EDGE ( 'NONE', *, *, #40, .F. ) ;
#118 = APPROVAL_PERSON_ORGANIZATION ( #224, #138, #209 ) ;
#119 = AXIS2_PLACEMENT_3D ( 'NONE', #249, #171, #30 ) ;
#120 = CARTESIAN_POINT ( 'NONE',  ( -1.250000000000000000, 0.000000000000000000, 1.199999999999999956 ) ) ;
#121 = CARTESIAN_POINT ( 'NONE',  ( 0.000000000000000000, 0.000000000000000000, 0.000000000000000000 ) ) ;
#122 = DIRECTION ( 'NONE',  ( 1.000000000000000000, 0.000000000000000000, 0.000000000000000000 ) ) ;
#123 = EDGE_CURVE ( 'NONE', #181, #81, #241, .T. ) ;
#124 = COORDINATED_UNIVERSAL_TIME_OFFSET ( 1, 0, .AHEAD. ) ;
#125 = CC_DESIGN_PERSON_AND_ORGANIZATION_ASSIGNMENT ( #225, #110, ( #231 ) ) ;
#126 = DIRECTION ( 'NONE',  ( 0.000000000000000000, 0.000000000000000000, 1.000000000000000000 ) ) ;
#127 = EDGE_CURVE ( 'NONE', #236, #59, #149, .T. ) ;
#128 = CALENDAR_DATE ( 2023, 31, 1 ) ;
#129 = CARTESIAN_POINT ( 'NONE',  ( -0.5000000000000000000, 0.000000000000000000, 1.199999999999999956 ) ) ;
#130 = DATE_AND_TIME ( #50, #54 ) ;
#131 = CC_DESIGN_APPROVAL ( #140, ( #142 ) ) ;
#132 = PLANE ( 'NONE',  #78 ) ;
#133 = CARTESIAN_POINT ( 'NONE',  ( 0.5000000000000000000, 6.123233995736766036E-17, 1.199999999999999956 ) ) ;
#134 = ORIENTED_EDGE ( 'NONE', *, *, #69, .F. ) ;
#135 = ORIENTED_EDGE ( 'NONE', *, *, #127, .F. ) ;
#136 = CC_DESIGN_SECURITY_CLASSIFICATION ( #192, ( #231 ) ) ;
#137 = ORIENTED_EDGE ( 'NONE', *, *, #17, .T. ) ;
#138 = APPROVAL ( #153, 'NEURÈENÝ' ) ;
#139 = ORIENTED_EDGE ( 'NONE', *, *, #217, .F. ) ;
#140 = APPROVAL ( #166, 'NEURÈENÝ' ) ;
#141 = ORGANIZATION ( 'NEURÈENÝ', 'NEURÈENÝ', '' ) ;
#142 = PRODUCT_DEFINITION ( 'NEZNÁMÝ', '', #231, #111 ) ;
#143 = AXIS2_PLACEMENT_3D ( 'NONE', #162, #65, #47 ) ;
#144 = DIRECTION ( 'NONE',  ( -0.000000000000000000, -0.000000000000000000, -1.000000000000000000 ) ) ;
#145 = DIRECTION ( 'NONE',  ( -1.000000000000000000, 0.000000000000000000, 0.000000000000000000 ) ) ;
#146 = AXIS2_PLACEMENT_3D ( 'NONE', #173, #52, #195 ) ;
#147 = UNCERTAINTY_MEASURE_WITH_UNIT (LENGTH_MEASURE( 1.000000000000000082E-05 ), #172, 'distance_accuracy_value', 'NONE');
#148 = DATE_AND_TIME ( #7, #8 ) ;
#149 = LINE ( 'NONE', #215, #234 ) ;
#150 = CIRCLE ( 'NONE', #51, 0.5000000000000000000 ) ;
#151 = CC_DESIGN_DATE_AND_TIME_ASSIGNMENT ( #130, #32, ( #142 ) ) ;
#152 = PERSON_AND_ORGANIZATION_ROLE ( 'classification_officer' ) ;
#153 = APPROVAL_STATUS ( 'not_yet_approved' ) ;
#154 = DIRECTION ( 'NONE',  ( 1.000000000000000000, 0.000000000000000000, 0.000000000000000000 ) ) ;
#155 = DATE_AND_TIME ( #29, #244 ) ;
#156 = LINE ( 'NONE', #230, #165 ) ;
#157 = CC_DESIGN_APPROVAL ( #138, ( #231 ) ) ;
#158 = CIRCLE ( 'NONE', #109, 0.5000000000000000000 ) ;
#159 = ORIENTED_EDGE ( 'NONE', *, *, #127, .T. ) ;
#160 = VERTEX_POINT ( 'NONE', #93 ) ;
#161 = ORIENTED_EDGE ( 'NONE', *, *, #69, .T. ) ;
#162 = CARTESIAN_POINT ( 'NONE',  ( 0.000000000000000000, 0.000000000000000000, 0.000000000000000000 ) ) ;
#163 = APPROVAL_ROLE ( '' ) ;
#164 = DIRECTION ( 'NONE',  ( 0.000000000000000000, 0.000000000000000000, 1.000000000000000000 ) ) ;
#165 = VECTOR ( 'NONE', #53, 1000.000000000000000 ) ;
#166 = APPROVAL_STATUS ( 'not_yet_approved' ) ;
#167 = CYLINDRICAL_SURFACE ( 'NONE', #221, 1.250000000000000000 ) ;
#168 = PERSON_AND_ORGANIZATION_ROLE ( 'design_owner' ) ;
#169 = CARTESIAN_POINT ( 'NONE',  ( 0.000000000000000000, 0.000000000000000000, 100.0000000000000000 ) ) ;
#170 = APPROVAL_ROLE ( '' ) ;
#171 = DIRECTION ( 'NONE',  ( 0.000000000000000000, 0.000000000000000000, 1.000000000000000000 ) ) ;
#172 =( LENGTH_UNIT ( ) NAMED_UNIT ( * ) SI_UNIT ( .MILLI., .METRE. ) );
#173 = CARTESIAN_POINT ( 'NONE',  ( 0.000000000000000000, 0.000000000000000000, 100.0000000000000000 ) ) ;
#174 = CARTESIAN_POINT ( 'NONE',  ( 0.000000000000000000, 0.000000000000000000, 0.000000000000000000 ) ) ;
#175 = PERSON ( 'NEURÈENÝ', 'NEURÈENÝ', 'NEURÈENÝ', ('NEURÈENÝ'), ('NEURÈENÝ'), ('NEURÈENÝ') ) ;
#176 = ADVANCED_FACE ( 'NONE', ( #196 ), #193, .T. ) ;
#177 = CLOSED_SHELL ( 'NONE', ( #35, #92, #44, #83, #213, #176, #200 ) ) ;
#178 = ORIENTED_EDGE ( 'NONE', *, *, #40, .T. ) ;
#179 = ORIENTED_EDGE ( 'NONE', *, *, #102, .F. ) ;
#180 = AXIS2_PLACEMENT_3D ( 'NONE', #55, #212, #194 ) ;
#181 = VERTEX_POINT ( 'NONE', #252 ) ;
#182 = VECTOR ( 'NONE', #96, 1000.000000000000000 ) ;
#183 = DIRECTION ( 'NONE',  ( 0.000000000000000000, 0.000000000000000000, 1.000000000000000000 ) ) ;
#184 = DIRECTION ( 'NONE',  ( -0.000000000000000000, -0.000000000000000000, -1.000000000000000000 ) ) ;
#185 = PERSON_AND_ORGANIZATION ( #175, #141 ) ;
#186 = DIRECTION ( 'NONE',  ( 1.000000000000000000, 0.000000000000000000, 0.000000000000000000 ) ) ;
#187 =( GEOMETRIC_REPRESENTATION_CONTEXT ( 3 ) GLOBAL_UNCERTAINTY_ASSIGNED_CONTEXT ( ( #147 ) ) GLOBAL_UNIT_ASSIGNED_CONTEXT ( ( #172, #113, #210 ) ) REPRESENTATION_CONTEXT ( 'NONE', 'WORKASPACE' ) );
#188 = DATE_AND_TIME ( #128, #228 ) ;
#189 = DIRECTION ( 'NONE',  ( 1.000000000000000000, 0.000000000000000000, 0.000000000000000000 ) ) ;
#190 = AXIS2_PLACEMENT_3D ( 'NONE', #250, #144, #42 ) ;
#191 = DIRECTION ( 'NONE',  ( 1.000000000000000000, 0.000000000000000000, 0.000000000000000000 ) ) ;
#192 = SECURITY_CLASSIFICATION ( '', '', #48 ) ;
#193 = CYLINDRICAL_SURFACE ( 'NONE', #146, 0.5000000000000000000 ) ;
#194 = DIRECTION ( 'NONE',  ( 1.000000000000000000, 0.000000000000000000, -0.000000000000000000 ) ) ;
#195 = DIRECTION ( 'NONE',  ( -1.000000000000000000, 0.000000000000000000, 0.000000000000000000 ) ) ;
#196 = FACE_OUTER_BOUND ( 'NONE', #2, .T. ) ;
#197 = LINE ( 'NONE', #15, #182 ) ;
#198 = ORIENTED_EDGE ( 'NONE', *, *, #3, .F. ) ;
#199 = ORIENTED_EDGE ( 'NONE', *, *, #26, .T. ) ;
#200 = ADVANCED_FACE ( 'NONE', ( #253 ), #132, .T. ) ;
#201 = AXIS2_PLACEMENT_3D ( 'NONE', #107, #126, #189 ) ;
#202 = DIRECTION ( 'NONE',  ( -0.000000000000000000, -0.000000000000000000, -1.000000000000000000 ) ) ;
#203 = MECHANICAL_CONTEXT ( 'NONE', #247, 'mechanical' ) ;
#204 = DIRECTION ( 'NONE',  ( -1.000000000000000000, 0.000000000000000000, 0.000000000000000000 ) ) ;
#205 = COORDINATED_UNIVERSAL_TIME_OFFSET ( 1, 0, .AHEAD. ) ;
#206 = PERSON_AND_ORGANIZATION ( #175, #141 ) ;
#207 = CARTESIAN_POINT ( 'NONE',  ( 0.000000000000000000, 0.000000000000000000, 100.0000000000000000 ) ) ;
#208 = VECTOR ( 'NONE', #202, 1000.000000000000000 ) ;
#209 = APPROVAL_ROLE ( '' ) ;
#210 =( NAMED_UNIT ( * ) SI_UNIT ( $, .STERADIAN. ) SOLID_ANGLE_UNIT ( ) );
#211 = CARTESIAN_POINT ( 'NONE',  ( -0.5000000000000000000, 0.000000000000000000, 100.0000000000000000 ) ) ;
#212 = DIRECTION ( 'NONE',  ( 0.000000000000000000, 0.000000000000000000, 1.000000000000000000 ) ) ;
#213 = ADVANCED_FACE ( 'NONE', ( #112 ), #232, .F. ) ;
#214 = AXIS2_PLACEMENT_3D ( 'NONE', #121, #49, #226 ) ;
#215 = CARTESIAN_POINT ( 'NONE',  ( -0.5000000000000000000, 0.000000000000000000, 100.0000000000000000 ) ) ;
#216 = EDGE_LOOP ( 'NONE', ( #117, #39 ) ) ;
#217 = EDGE_CURVE ( 'NONE', #181, #160, #156, .T. ) ;
#218 = EDGE_LOOP ( 'NONE', ( #139, #134, #115, #18 ) ) ;
#219 = ORIENTED_EDGE ( 'NONE', *, *, #3, .T. ) ;
#220 = ORIENTED_EDGE ( 'NONE', *, *, #123, .F. ) ;
#221 = AXIS2_PLACEMENT_3D ( 'NONE', #85, #246, #145 ) ;
#222 = FACE_OUTER_BOUND ( 'NONE', #80, .T. ) ;
#223 = CARTESIAN_POINT ( 'NONE',  ( -1.250000000000000000, 0.000000000000000000, 1.199999999999999956 ) ) ;
#224 = PERSON_AND_ORGANIZATION ( #175, #141 ) ;
#225 = PERSON_AND_ORGANIZATION ( #175, #141 ) ;
#226 = DIRECTION ( 'NONE',  ( 1.000000000000000000, 0.000000000000000000, 0.000000000000000000 ) ) ;
#227 = COORDINATED_UNIVERSAL_TIME_OFFSET ( 1, 0, .AHEAD. ) ;
#228 = LOCAL_TIME ( 10, 59, 39.00000000000000000, #27 ) ;
#229 = CARTESIAN_POINT ( 'NONE',  ( 0.000000000000000000, 0.000000000000000000, 100.0000000000000000 ) ) ;
#230 = CARTESIAN_POINT ( 'NONE',  ( 1.250000000000000000, 1.530808498934191571E-16, 1.199999999999999956 ) ) ;
#231 = PRODUCT_DEFINITION_FORMATION_WITH_SPECIFIED_SOURCE ( 'LIBOVOLNÝ', '', #36, .NOT_KNOWN. ) ;
#232 = PLANE ( 'NONE',  #180 ) ;
#233 = CC_DESIGN_PERSON_AND_ORGANIZATION_ASSIGNMENT ( #185, #168, ( #36 ) ) ;
#234 = VECTOR ( 'NONE', #91, 1000.000000000000000 ) ;
#235 = AXIS2_PLACEMENT_3D ( 'NONE', #207, #10, #122 ) ;
#236 = VERTEX_POINT ( 'NONE', #211 ) ;
#237 = CARTESIAN_POINT ( 'NONE',  ( -1.250000000000000000, 0.000000000000000000, 0.000000000000000000 ) ) ;
#238 = EDGE_LOOP ( 'NONE', ( #37, #219, #97, #135 ) ) ;
#239 = EDGE_LOOP ( 'NONE', ( #61, #99 ) ) ;
#240 = APPROVAL ( #11, 'NEURÈENÝ' ) ;
#241 = CIRCLE ( 'NONE', #79, 1.250000000000000000 ) ;
#242 = FACE_OUTER_BOUND ( 'NONE', #218, .T. ) ;
#243 = DATE_TIME_ROLE ( 'classification_date' ) ;
#244 = LOCAL_TIME ( 10, 59, 39.00000000000000000, #124 ) ;
#245 = CARTESIAN_POINT ( 'NONE',  ( 0.000000000000000000, 0.000000000000000000, 1.199999999999999956 ) ) ;
#246 = DIRECTION ( 'NONE',  ( -0.000000000000000000, -0.000000000000000000, -1.000000000000000000 ) ) ;
#247 = APPLICATION_CONTEXT ( 'configuration controlled 3d designs of mechanical parts and assemblies' ) ;
#248 = APPROVAL_DATE_TIME ( #155, #140 ) ;
#249 = CARTESIAN_POINT ( 'NONE',  ( 0.000000000000000000, 0.000000000000000000, 1.199999999999999956 ) ) ;
#250 = CARTESIAN_POINT ( 'NONE',  ( 0.000000000000000000, 0.000000000000000000, 1.199999999999999956 ) ) ;
#251 = APPROVAL_PERSON_ORGANIZATION ( #206, #240, #170 ) ;
#252 = CARTESIAN_POINT ( 'NONE',  ( 1.250000000000000000, 1.530808498934191571E-16, 1.199999999999999956 ) ) ;
#253 = FACE_OUTER_BOUND ( 'NONE', #38, .T. ) ;
#254 = DIRECTION ( 'NONE',  ( 0.000000000000000000, 0.000000000000000000, 1.000000000000000000 ) ) ;
#255 = VERTEX_POINT ( 'NONE', #133 ) ;
ENDSEC;
END-ISO-10303-21;
