ISO-10303-21;
HEADER;
FILE_DESCRIPTION (( 'STEP AP203' ),
    '1' );
FILE_NAME ('d1b7.STEP',
    '2023-02-13T15:04:38',
    ( '' ),
    ( '' ),
    'SwSTEP 2.0',
    'SolidWorks 2019',
    '' );
FILE_SCHEMA (( 'CONFIG_CONTROL_DESIGN' ));
ENDSEC;

DATA;
#1 = DIRECTION ( 'NONE',  ( 1.000000000000000000, 0.000000000000000000, -0.000000000000000000 ) ) ;
#2 = EDGE_LOOP ( 'NONE', ( #154, #8, #200, #38 ) ) ;
#3 = APPROVAL_ROLE ( '' ) ;
#4 = PERSON_AND_ORGANIZATION_ROLE ( 'creator' ) ;
#5 = AXIS2_PLACEMENT_3D ( 'NONE', #211, #17, #31 ) ;
#6 = VERTEX_POINT ( 'NONE', #10 ) ;
#7 = ORIENTED_EDGE ( 'NONE', *, *, #28, .F. ) ;
#8 = ORIENTED_EDGE ( 'NONE', *, *, #183, .T. ) ;
#9 = AXIS2_PLACEMENT_3D ( 'NONE', #119, #214, #106 ) ;
#10 = CARTESIAN_POINT ( 'NONE',  ( -4.000000000000000000, 0.000000000000000000, 3.000000000000000000 ) ) ;
#11 = ORGANIZATION ( 'NEURÈENÝ', 'NEURÈENÝ', '' ) ;
#12 = ORIENTED_EDGE ( 'NONE', *, *, #111, .T. ) ;
#13 = ADVANCED_FACE ( 'NONE', ( #113 ), #89, .T. ) ;
#14 = DIRECTION ( 'NONE',  ( -0.000000000000000000, -0.000000000000000000, -1.000000000000000000 ) ) ;
#15 = CC_DESIGN_DATE_AND_TIME_ASSIGNMENT ( #57, #233, ( #117 ) ) ;
#16 = CARTESIAN_POINT ( 'NONE',  ( 2.250000000000000000, 2.755455298081544285E-16, 3.000000000000000000 ) ) ;
#17 = DIRECTION ( 'NONE',  ( 0.000000000000000000, 0.000000000000000000, 1.000000000000000000 ) ) ;
#18 = APPLICATION_PROTOCOL_DEFINITION ( 'international standard', 'config_control_design', 1994, #184 ) ;
#19 = ORIENTED_EDGE ( 'NONE', *, *, #210, .T. ) ;
#20 = PRODUCT ( 'd1b7', 'd1b7', '', ( #67 ) ) ;
#21 = EDGE_CURVE ( 'NONE', #157, #241, #96, .T. ) ;
#22 = PRODUCT_DEFINITION_FORMATION_WITH_SPECIFIED_SOURCE ( 'LIBOVOLNÝ', '', #20, .NOT_KNOWN. ) ;
#23 = DIRECTION ( 'NONE',  ( 0.000000000000000000, 0.000000000000000000, 1.000000000000000000 ) ) ;
#24 = AXIS2_PLACEMENT_3D ( 'NONE', #82, #160, #144 ) ;
#25 = VERTEX_POINT ( 'NONE', #156 ) ;
#26 = AXIS2_PLACEMENT_3D ( 'NONE', #126, #209, #189 ) ;
#27 = LOCAL_TIME ( 16, 4, 38.00000000000000000, #35 ) ;
#28 = EDGE_CURVE ( 'NONE', #6, #105, #87, .T. ) ;
#29 = FACE_OUTER_BOUND ( 'NONE', #60, .T. ) ;
#30 = CC_DESIGN_PERSON_AND_ORGANIZATION_ASSIGNMENT ( #173, #4, ( #117 ) ) ;
#31 = DIRECTION ( 'NONE',  ( 1.000000000000000000, 0.000000000000000000, 0.000000000000000000 ) ) ;
#32 = SECURITY_CLASSIFICATION_LEVEL ( 'unclassified' ) ;
#33 = PERSON_AND_ORGANIZATION_ROLE ( 'design_owner' ) ;
#34 = AXIS2_PLACEMENT_3D ( 'NONE', #121, #64, #161 ) ;
#35 = COORDINATED_UNIVERSAL_TIME_OFFSET ( 1, 0, .AHEAD. ) ;
#36 =( GEOMETRIC_REPRESENTATION_CONTEXT ( 3 ) GLOBAL_UNCERTAINTY_ASSIGNED_CONTEXT ( ( #215 ) ) GLOBAL_UNIT_ASSIGNED_CONTEXT ( ( #247, #112, #236 ) ) REPRESENTATION_CONTEXT ( 'NONE', 'WORKASPACE' ) );
#37 = CALENDAR_DATE ( 2023, 13, 2 ) ;
#38 = ORIENTED_EDGE ( 'NONE', *, *, #147, .F. ) ;
#39 = CARTESIAN_POINT ( 'NONE',  ( 2.250000000000000000, 2.755455298081544285E-16, 160.0000000000000000 ) ) ;
#40 = PERSON_AND_ORGANIZATION_ROLE ( 'creator' ) ;
#41 = ORIENTED_EDGE ( 'NONE', *, *, #176, .F. ) ;
#42 = ORIENTED_EDGE ( 'NONE', *, *, #183, .F. ) ;
#43 = ORIENTED_EDGE ( 'NONE', *, *, #58, .T. ) ;
#44 = DIRECTION ( 'NONE',  ( 1.000000000000000000, 0.000000000000000000, 0.000000000000000000 ) ) ;
#45 = AXIS2_PLACEMENT_3D ( 'NONE', #136, #143, #44 ) ;
#46 = CC_DESIGN_PERSON_AND_ORGANIZATION_ASSIGNMENT ( #130, #33, ( #20 ) ) ;
#47 = DATE_TIME_ROLE ( 'classification_date' ) ;
#48 = CARTESIAN_POINT ( 'NONE',  ( 4.000000000000000000, 4.898587196589412829E-16, 3.000000000000000000 ) ) ;
#49 = CC_DESIGN_PERSON_AND_ORGANIZATION_ASSIGNMENT ( #65, #255, ( #223 ) ) ;
#50 = PLANE ( 'NONE',  #226 ) ;
#51 = FACE_OUTER_BOUND ( 'NONE', #240, .T. ) ;
#52 = FACE_OUTER_BOUND ( 'NONE', #2, .T. ) ;
#53 = PERSON_AND_ORGANIZATION ( #249, #11 ) ;
#54 = APPROVAL_PERSON_ORGANIZATION ( #231, #73, #3 ) ;
#55 = DATE_AND_TIME ( #234, #135 ) ;
#56 = FACE_OUTER_BOUND ( 'NONE', #195, .T. ) ;
#57 = DATE_AND_TIME ( #37, #219 ) ;
#58 = EDGE_CURVE ( 'NONE', #253, #140, #115, .T. ) ;
#59 = CALENDAR_DATE ( 2023, 13, 2 ) ;
#60 = EDGE_LOOP ( 'NONE', ( #42, #7, #238, #201 ) ) ;
#61 = CARTESIAN_POINT ( 'NONE',  ( 0.000000000000000000, 0.000000000000000000, 160.0000000000000000 ) ) ;
#62 = ADVANCED_FACE ( 'NONE', ( #218 ), #228, .F. ) ;
#63 = AXIS2_PLACEMENT_3D ( 'NONE', #254, #69, #68 ) ;
#64 = DIRECTION ( 'NONE',  ( 0.000000000000000000, 0.000000000000000000, 1.000000000000000000 ) ) ;
#65 = PERSON_AND_ORGANIZATION ( #249, #11 ) ;
#66 = CARTESIAN_POINT ( 'NONE',  ( -2.250000000000000000, 0.000000000000000000, 3.000000000000000000 ) ) ;
#67 = MECHANICAL_CONTEXT ( 'NONE', #184, 'mechanical' ) ;
#68 = DIRECTION ( 'NONE',  ( 1.000000000000000000, 0.000000000000000000, 0.000000000000000000 ) ) ;
#69 = DIRECTION ( 'NONE',  ( 0.000000000000000000, 0.000000000000000000, 1.000000000000000000 ) ) ;
#70 = COORDINATED_UNIVERSAL_TIME_OFFSET ( 1, 0, .AHEAD. ) ;
#71 = CIRCLE ( 'NONE', #5, 2.250000000000000000 ) ;
#72 = EDGE_LOOP ( 'NONE', ( #108, #12, #76, #141 ) ) ;
#73 = APPROVAL ( #171, 'NEURÈENÝ' ) ;
#74 = DIRECTION ( 'NONE',  ( 1.000000000000000000, 0.000000000000000000, 0.000000000000000000 ) ) ;
#75 = AXIS2_PLACEMENT_3D ( 'NONE', #61, #198, #93 ) ;
#76 = ORIENTED_EDGE ( 'NONE', *, *, #21, .T. ) ;
#77 = APPROVAL ( #129, 'NEURÈENÝ' ) ;
#78 = CARTESIAN_POINT ( 'NONE',  ( 0.000000000000000000, 0.000000000000000000, 3.000000000000000000 ) ) ;
#79 = CIRCLE ( 'NONE', #45, 2.250000000000000000 ) ;
#80 = ORIENTED_EDGE ( 'NONE', *, *, #162, .T. ) ;
#81 = EDGE_CURVE ( 'NONE', #131, #25, #153, .T. ) ;
#82 = CARTESIAN_POINT ( 'NONE',  ( 0.000000000000000000, 0.000000000000000000, 0.000000000000000000 ) ) ;
#83 = ORIENTED_EDGE ( 'NONE', *, *, #94, .T. ) ;
#84 = ORIENTED_EDGE ( 'NONE', *, *, #81, .F. ) ;
#85 = DIRECTION ( 'NONE',  ( -0.000000000000000000, -0.000000000000000000, -1.000000000000000000 ) ) ;
#86 = CARTESIAN_POINT ( 'NONE',  ( 4.000000000000000000, 4.898587196589412829E-16, 0.000000000000000000 ) ) ;
#87 = CIRCLE ( 'NONE', #100, 4.000000000000000000 ) ;
#88 = CALENDAR_DATE ( 2023, 13, 2 ) ;
#89 = CYLINDRICAL_SURFACE ( 'NONE', #75, 2.250000000000000000 ) ;
#90 = APPROVAL_ROLE ( '' ) ;
#91 = AXIS2_PLACEMENT_3D ( 'NONE', #220, #23, #181 ) ;
#92 = ORIENTED_EDGE ( 'NONE', *, *, #28, .T. ) ;
#93 = DIRECTION ( 'NONE',  ( -1.000000000000000000, 0.000000000000000000, 0.000000000000000000 ) ) ;
#94 = EDGE_CURVE ( 'NONE', #241, #157, #79, .T. ) ;
#95 = AXIS2_PLACEMENT_3D ( 'NONE', #190, #213, #165 ) ;
#96 = CIRCLE ( 'NONE', #91, 2.250000000000000000 ) ;
#97 = DIRECTION ( 'NONE',  ( 1.000000000000000000, 0.000000000000000000, 0.000000000000000000 ) ) ;
#98 = LINE ( 'NONE', #193, #174 ) ;
#99 = APPLICATION_PROTOCOL_DEFINITION ( 'international standard', 'config_control_design', 1994, #248 ) ;
#100 = AXIS2_PLACEMENT_3D ( 'NONE', #78, #177, #74 ) ;
#101 = CC_DESIGN_SECURITY_CLASSIFICATION ( #223, ( #22 ) ) ;
#102 = CALENDAR_DATE ( 2023, 13, 2 ) ;
#103 = APPROVAL ( #182, 'NEURÈENÝ' ) ;
#104 = CYLINDRICAL_SURFACE ( 'NONE', #26, 4.000000000000000000 ) ;
#105 = VERTEX_POINT ( 'NONE', #202 ) ;
#106 = DIRECTION ( 'NONE',  ( 1.000000000000000000, 0.000000000000000000, -0.000000000000000000 ) ) ;
#107 = PERSON_AND_ORGANIZATION ( #249, #11 ) ;
#108 = ORIENTED_EDGE ( 'NONE', *, *, #58, .F. ) ;
#109 = AXIS2_PLACEMENT_3D ( 'NONE', #137, #14, #187 ) ;
#110 = CC_DESIGN_DATE_AND_TIME_ASSIGNMENT ( #122, #47, ( #223 ) ) ;
#111 = EDGE_CURVE ( 'NONE', #253, #157, #243, .T. ) ;
#112 =( NAMED_UNIT ( * ) PLANE_ANGLE_UNIT ( ) SI_UNIT ( $, .RADIAN. ) );
#113 = FACE_OUTER_BOUND ( 'NONE', #179, .T. ) ;
#114 = EDGE_LOOP ( 'NONE', ( #237, #242 ) ) ;
#115 = CIRCLE ( 'NONE', #138, 2.250000000000000000 ) ;
#116 = LOCAL_TIME ( 16, 4, 38.00000000000000000, #222 ) ;
#117 = PRODUCT_DEFINITION ( 'NEZNÁMÝ', '', #22, #169 ) ;
#118 = DIRECTION ( 'NONE',  ( 0.000000000000000000, 0.000000000000000000, 1.000000000000000000 ) ) ;
#119 = CARTESIAN_POINT ( 'NONE',  ( 0.000000000000000000, 0.000000000000000000, 160.0000000000000000 ) ) ;
#120 = PERSON_AND_ORGANIZATION ( #249, #11 ) ;
#121 = CARTESIAN_POINT ( 'NONE',  ( 0.000000000000000000, 0.000000000000000000, 0.000000000000000000 ) ) ;
#122 = DATE_AND_TIME ( #102, #27 ) ;
#123 = ADVANCED_FACE ( 'NONE', ( #52 ), #104, .T. ) ;
#124 = DIRECTION ( 'NONE',  ( -0.000000000000000000, -0.000000000000000000, -1.000000000000000000 ) ) ;
#125 = PERSON_AND_ORGANIZATION_ROLE ( 'design_supplier' ) ;
#126 = CARTESIAN_POINT ( 'NONE',  ( 0.000000000000000000, 0.000000000000000000, 3.000000000000000000 ) ) ;
#127 = FACE_BOUND ( 'NONE', #114, .T. ) ;
#128 = APPROVAL_DATE_TIME ( #55, #73 ) ;
#129 = APPROVAL_STATUS ( 'not_yet_approved' ) ;
#130 = PERSON_AND_ORGANIZATION ( #249, #11 ) ;
#131 = VERTEX_POINT ( 'NONE', #86 ) ;
#132 = CIRCLE ( 'NONE', #63, 4.000000000000000000 ) ;
#133 = DIRECTION ( 'NONE',  ( 1.000000000000000000, 0.000000000000000000, 0.000000000000000000 ) ) ;
#134 = VECTOR ( 'NONE', #85, 1000.000000000000000 ) ;
#135 = LOCAL_TIME ( 16, 4, 38.00000000000000000, #151 ) ;
#136 = CARTESIAN_POINT ( 'NONE',  ( 0.000000000000000000, 0.000000000000000000, 3.000000000000000000 ) ) ;
#137 = CARTESIAN_POINT ( 'NONE',  ( 0.000000000000000000, 0.000000000000000000, 160.0000000000000000 ) ) ;
#138 = AXIS2_PLACEMENT_3D ( 'NONE', #158, #239, #133 ) ;
#139 = DATE_AND_TIME ( #59, #116 ) ;
#140 = VERTEX_POINT ( 'NONE', #167 ) ;
#141 = ORIENTED_EDGE ( 'NONE', *, *, #162, .F. ) ;
#142 = SHAPE_DEFINITION_REPRESENTATION ( #196, #180 ) ;
#143 = DIRECTION ( 'NONE',  ( 0.000000000000000000, 0.000000000000000000, 1.000000000000000000 ) ) ;
#144 = DIRECTION ( 'NONE',  ( 1.000000000000000000, 0.000000000000000000, 0.000000000000000000 ) ) ;
#145 = LINE ( 'NONE', #251, #185 ) ;
#146 = ADVANCED_FACE ( 'NONE', ( #29 ), #192, .T. ) ;
#147 = EDGE_CURVE ( 'NONE', #6, #25, #145, .T. ) ;
#148 = DIRECTION ( 'NONE',  ( -0.000000000000000000, -0.000000000000000000, -1.000000000000000000 ) ) ;
#149 = CARTESIAN_POINT ( 'NONE',  ( 0.000000000000000000, 0.000000000000000000, 3.000000000000000000 ) ) ;
#150 = FACE_OUTER_BOUND ( 'NONE', #72, .T. ) ;
#151 = COORDINATED_UNIVERSAL_TIME_OFFSET ( 1, 0, .AHEAD. ) ;
#152 = PLANE ( 'NONE',  #9 ) ;
#153 = CIRCLE ( 'NONE', #168, 4.000000000000000000 ) ;
#154 = ORIENTED_EDGE ( 'NONE', *, *, #210, .F. ) ;
#155 = ORIENTED_EDGE ( 'NONE', *, *, #245, .F. ) ;
#156 = CARTESIAN_POINT ( 'NONE',  ( -4.000000000000000000, 0.000000000000000000, 0.000000000000000000 ) ) ;
#157 = VERTEX_POINT ( 'NONE', #16 ) ;
#158 = CARTESIAN_POINT ( 'NONE',  ( 0.000000000000000000, 0.000000000000000000, 160.0000000000000000 ) ) ;
#159 = CC_DESIGN_PERSON_AND_ORGANIZATION_ASSIGNMENT ( #107, #125, ( #22 ) ) ;
#160 = DIRECTION ( 'NONE',  ( 0.000000000000000000, 0.000000000000000000, 1.000000000000000000 ) ) ;
#161 = DIRECTION ( 'NONE',  ( 1.000000000000000000, 0.000000000000000000, -0.000000000000000000 ) ) ;
#162 = EDGE_CURVE ( 'NONE', #140, #241, #98, .T. ) ;
#163 = MANIFOLD_SOLID_BREP ( 'Pøidat vysunutím3', #235 ) ;
#164 = LOCAL_TIME ( 16, 4, 38.00000000000000000, #212 ) ;
#165 = DIRECTION ( 'NONE',  ( 1.000000000000000000, 0.000000000000000000, 0.000000000000000000 ) ) ;
#166 = ADVANCED_FACE ( 'NONE', ( #127, #51 ), #50, .T. ) ;
#167 = CARTESIAN_POINT ( 'NONE',  ( -2.250000000000000000, 0.000000000000000000, 160.0000000000000000 ) ) ;
#168 = AXIS2_PLACEMENT_3D ( 'NONE', #250, #118, #97 ) ;
#169 = DESIGN_CONTEXT ( 'detailed design', #248, 'design' ) ;
#170 = CARTESIAN_POINT ( 'NONE',  ( 0.000000000000000000, 0.000000000000000000, 3.000000000000000000 ) ) ;
#171 = APPROVAL_STATUS ( 'not_yet_approved' ) ;
#172 = APPROVAL_ROLE ( '' ) ;
#173 = PERSON_AND_ORGANIZATION ( #249, #11 ) ;
#174 = VECTOR ( 'NONE', #148, 1000.000000000000000 ) ;
#175 = PERSON_AND_ORGANIZATION ( #249, #11 ) ;
#176 = EDGE_CURVE ( 'NONE', #140, #253, #71, .T. ) ;
#177 = DIRECTION ( 'NONE',  ( 0.000000000000000000, 0.000000000000000000, 1.000000000000000000 ) ) ;
#178 = AXIS2_PLACEMENT_3D ( 'NONE', #170, #124, #229 ) ;
#179 = EDGE_LOOP ( 'NONE', ( #217, #41, #80, #83 ) ) ;
#180 = ADVANCED_BREP_SHAPE_REPRESENTATION ( 'd1b7', ( #163, #95 ), #36 ) ;
#181 = DIRECTION ( 'NONE',  ( 1.000000000000000000, 0.000000000000000000, 0.000000000000000000 ) ) ;
#182 = APPROVAL_STATUS ( 'not_yet_approved' ) ;
#183 = EDGE_CURVE ( 'NONE', #105, #131, #191, .T. ) ;
#184 = APPLICATION_CONTEXT ( 'configuration controlled 3d designs of mechanical parts and assemblies' ) ;
#185 = VECTOR ( 'NONE', #225, 1000.000000000000000 ) ;
#186 = CC_DESIGN_APPROVAL ( #77, ( #22 ) ) ;
#187 = DIRECTION ( 'NONE',  ( -1.000000000000000000, 0.000000000000000000, 0.000000000000000000 ) ) ;
#188 = APPROVAL_DATE_TIME ( #139, #103 ) ;
#189 = DIRECTION ( 'NONE',  ( -1.000000000000000000, 0.000000000000000000, 0.000000000000000000 ) ) ;
#190 = CARTESIAN_POINT ( 'NONE',  ( 0.000000000000000000, 0.000000000000000000, 0.000000000000000000 ) ) ;
#191 = LINE ( 'NONE', #48, #134 ) ;
#192 = CYLINDRICAL_SURFACE ( 'NONE', #178, 4.000000000000000000 ) ;
#193 = CARTESIAN_POINT ( 'NONE',  ( -2.250000000000000000, 0.000000000000000000, 160.0000000000000000 ) ) ;
#194 = DATE_AND_TIME ( #88, #164 ) ;
#195 = EDGE_LOOP ( 'NONE', ( #224, #43 ) ) ;
#196 = PRODUCT_DEFINITION_SHAPE ( 'NONE', 'NONE',  #117 ) ;
#197 = APPROVAL_PERSON_ORGANIZATION ( #120, #103, #90 ) ;
#198 = DIRECTION ( 'NONE',  ( -0.000000000000000000, -0.000000000000000000, -1.000000000000000000 ) ) ;
#199 = PRODUCT_RELATED_PRODUCT_CATEGORY ( 'detail', '', ( #20 ) ) ;
#200 = ORIENTED_EDGE ( 'NONE', *, *, #81, .T. ) ;
#201 = ORIENTED_EDGE ( 'NONE', *, *, #245, .T. ) ;
#202 = CARTESIAN_POINT ( 'NONE',  ( 4.000000000000000000, 4.898587196589412829E-16, 3.000000000000000000 ) ) ;
#203 = DIRECTION ( 'NONE',  ( -0.000000000000000000, -0.000000000000000000, -1.000000000000000000 ) ) ;
#204 = EDGE_LOOP ( 'NONE', ( #155, #84 ) ) ;
#205 = APPROVAL_PERSON_ORGANIZATION ( #53, #77, #172 ) ;
#206 = CC_DESIGN_APPROVAL ( #73, ( #117 ) ) ;
#207 = CC_DESIGN_PERSON_AND_ORGANIZATION_ASSIGNMENT ( #175, #40, ( #22 ) ) ;
#208 = DIRECTION ( 'NONE',  ( 0.000000000000000000, 0.000000000000000000, 1.000000000000000000 ) ) ;
#209 = DIRECTION ( 'NONE',  ( -0.000000000000000000, -0.000000000000000000, -1.000000000000000000 ) ) ;
#210 = EDGE_CURVE ( 'NONE', #105, #6, #132, .T. ) ;
#211 = CARTESIAN_POINT ( 'NONE',  ( 0.000000000000000000, 0.000000000000000000, 160.0000000000000000 ) ) ;
#212 = COORDINATED_UNIVERSAL_TIME_OFFSET ( 1, 0, .AHEAD. ) ;
#213 = DIRECTION ( 'NONE',  ( 0.000000000000000000, 0.000000000000000000, 1.000000000000000000 ) ) ;
#214 = DIRECTION ( 'NONE',  ( 0.000000000000000000, 0.000000000000000000, 1.000000000000000000 ) ) ;
#215 = UNCERTAINTY_MEASURE_WITH_UNIT (LENGTH_MEASURE( 1.000000000000000082E-05 ), #247, 'distance_accuracy_value', 'NONE');
#216 = APPROVAL_DATE_TIME ( #194, #77 ) ;
#217 = ORIENTED_EDGE ( 'NONE', *, *, #111, .F. ) ;
#218 = FACE_OUTER_BOUND ( 'NONE', #204, .T. ) ;
#219 = LOCAL_TIME ( 16, 4, 38.00000000000000000, #70 ) ;
#220 = CARTESIAN_POINT ( 'NONE',  ( 0.000000000000000000, 0.000000000000000000, 3.000000000000000000 ) ) ;
#221 = CARTESIAN_POINT ( 'NONE',  ( 2.250000000000000000, 2.755455298081544285E-16, 160.0000000000000000 ) ) ;
#222 = COORDINATED_UNIVERSAL_TIME_OFFSET ( 1, 0, .AHEAD. ) ;
#223 = SECURITY_CLASSIFICATION ( '', '', #32 ) ;
#224 = ORIENTED_EDGE ( 'NONE', *, *, #176, .T. ) ;
#225 = DIRECTION ( 'NONE',  ( -0.000000000000000000, -0.000000000000000000, -1.000000000000000000 ) ) ;
#226 = AXIS2_PLACEMENT_3D ( 'NONE', #149, #208, #1 ) ;
#227 = CC_DESIGN_APPROVAL ( #103, ( #223 ) ) ;
#228 = PLANE ( 'NONE',  #34 ) ;
#229 = DIRECTION ( 'NONE',  ( -1.000000000000000000, 0.000000000000000000, 0.000000000000000000 ) ) ;
#230 = ADVANCED_FACE ( 'NONE', ( #150 ), #232, .T. ) ;
#231 = PERSON_AND_ORGANIZATION ( #249, #11 ) ;
#232 = CYLINDRICAL_SURFACE ( 'NONE', #109, 2.250000000000000000 ) ;
#233 = DATE_TIME_ROLE ( 'creation_date' ) ;
#234 = CALENDAR_DATE ( 2023, 13, 2 ) ;
#235 = CLOSED_SHELL ( 'NONE', ( #230, #123, #146, #166, #62, #13, #246 ) ) ;
#236 =( NAMED_UNIT ( * ) SI_UNIT ( $, .STERADIAN. ) SOLID_ANGLE_UNIT ( ) );
#237 = ORIENTED_EDGE ( 'NONE', *, *, #94, .F. ) ;
#238 = ORIENTED_EDGE ( 'NONE', *, *, #147, .T. ) ;
#239 = DIRECTION ( 'NONE',  ( 0.000000000000000000, 0.000000000000000000, 1.000000000000000000 ) ) ;
#240 = EDGE_LOOP ( 'NONE', ( #92, #19 ) ) ;
#241 = VERTEX_POINT ( 'NONE', #66 ) ;
#242 = ORIENTED_EDGE ( 'NONE', *, *, #21, .F. ) ;
#243 = LINE ( 'NONE', #221, #252 ) ;
#244 = CIRCLE ( 'NONE', #24, 4.000000000000000000 ) ;
#245 = EDGE_CURVE ( 'NONE', #25, #131, #244, .T. ) ;
#246 = ADVANCED_FACE ( 'NONE', ( #56 ), #152, .T. ) ;
#247 =( LENGTH_UNIT ( ) NAMED_UNIT ( * ) SI_UNIT ( .MILLI., .METRE. ) );
#248 = APPLICATION_CONTEXT ( 'configuration controlled 3d designs of mechanical parts and assemblies' ) ;
#249 = PERSON ( 'NEURÈENÝ', 'NEURÈENÝ', 'NEURÈENÝ', ('NEURÈENÝ'), ('NEURÈENÝ'), ('NEURÈENÝ') ) ;
#250 = CARTESIAN_POINT ( 'NONE',  ( 0.000000000000000000, 0.000000000000000000, 0.000000000000000000 ) ) ;
#251 = CARTESIAN_POINT ( 'NONE',  ( -4.000000000000000000, 0.000000000000000000, 3.000000000000000000 ) ) ;
#252 = VECTOR ( 'NONE', #203, 1000.000000000000000 ) ;
#253 = VERTEX_POINT ( 'NONE', #39 ) ;
#254 = CARTESIAN_POINT ( 'NONE',  ( 0.000000000000000000, 0.000000000000000000, 3.000000000000000000 ) ) ;
#255 = PERSON_AND_ORGANIZATION_ROLE ( 'classification_officer' ) ;
ENDSEC;
END-ISO-10303-21;
