ISO-10303-21;
HEADER;
FILE_DESCRIPTION (( 'STEP AP203' ),
    '1' );
FILE_NAME ('8b74.STEP',
    '2023-02-13T13:36:09',
    ( '' ),
    ( '' ),
    'SwSTEP 2.0',
    'SolidWorks 2019',
    '' );
FILE_SCHEMA (( 'CONFIG_CONTROL_DESIGN' ));
ENDSEC;

DATA;
#1 = CC_DESIGN_APPROVAL ( #195, ( #213 ) ) ;
#2 = DIRECTION ( 'NONE',  ( 1.000000000000000000, 0.000000000000000000, 0.000000000000000000 ) ) ;
#3 =( NAMED_UNIT ( * ) SI_UNIT ( $, .STERADIAN. ) SOLID_ANGLE_UNIT ( ) );
#4 = DIRECTION ( 'NONE',  ( 0.000000000000000000, 0.000000000000000000, 1.000000000000000000 ) ) ;
#5 = DIRECTION ( 'NONE',  ( 0.000000000000000000, 0.000000000000000000, 1.000000000000000000 ) ) ;
#6 = ORIENTED_EDGE ( 'NONE', *, *, #85, .F. ) ;
#7 = FACE_OUTER_BOUND ( 'NONE', #91, .T. ) ;
#8 = ORIENTED_EDGE ( 'NONE', *, *, #179, .F. ) ;
#9 = EDGE_LOOP ( 'NONE', ( #240, #147, #32, #167 ) ) ;
#10 = APPROVAL_STATUS ( 'not_yet_approved' ) ;
#11 = FACE_OUTER_BOUND ( 'NONE', #9, .T. ) ;
#12 = CC_DESIGN_PERSON_AND_ORGANIZATION_ASSIGNMENT ( #49, #151, ( #65 ) ) ;
#13 = DATE_AND_TIME ( #204, #15 ) ;
#14 = CIRCLE ( 'NONE', #84, 6.000000000000000888 ) ;
#15 = LOCAL_TIME ( 14, 36, 9.000000000000000000, #55 ) ;
#16 = ORIENTED_EDGE ( 'NONE', *, *, #162, .T. ) ;
#17 = CALENDAR_DATE ( 2023, 13, 2 ) ;
#18 = AXIS2_PLACEMENT_3D ( 'NONE', #82, #181, #100 ) ;
#19 = EDGE_CURVE ( 'NONE', #104, #86, #105, .T. ) ;
#20 = DIRECTION ( 'NONE',  ( 1.000000000000000000, 0.000000000000000000, 0.000000000000000000 ) ) ;
#21 = VECTOR ( 'NONE', #140, 1000.000000000000000 ) ;
#22 = DIRECTION ( 'NONE',  ( 1.000000000000000000, 0.000000000000000000, 0.000000000000000000 ) ) ;
#23 = EDGE_CURVE ( 'NONE', #243, #112, #71, .T. ) ;
#24 = DIRECTION ( 'NONE',  ( -0.000000000000000000, -0.000000000000000000, -1.000000000000000000 ) ) ;
#25 = CYLINDRICAL_SURFACE ( 'NONE', #18, 6.000000000000000888 ) ;
#26 = DIRECTION ( 'NONE',  ( 0.000000000000000000, 0.000000000000000000, 1.000000000000000000 ) ) ;
#27 = CIRCLE ( 'NONE', #102, 3.500000000000000000 ) ;
#28 = VERTEX_POINT ( 'NONE', #219 ) ;
#29 = VERTEX_POINT ( 'NONE', #66 ) ;
#30 = APPROVAL_ROLE ( '' ) ;
#31 = APPROVAL ( #188, 'NEURÈENÝ' ) ;
#32 = ORIENTED_EDGE ( 'NONE', *, *, #85, .T. ) ;
#33 = ORIENTED_EDGE ( 'NONE', *, *, #23, .F. ) ;
#34 = APPROVAL_PERSON_ORGANIZATION ( #94, #31, #87 ) ;
#35 = CARTESIAN_POINT ( 'NONE',  ( 3.500000000000000000, 4.286263797015736595E-16, 200.0000000000000000 ) ) ;
#36 = ADVANCED_FACE ( 'NONE', ( #220 ), #250, .T. ) ;
#37 = LOCAL_TIME ( 14, 36, 9.000000000000000000, #193 ) ;
#38 = CARTESIAN_POINT ( 'NONE',  ( 0.000000000000000000, 0.000000000000000000, 5.000000000000000000 ) ) ;
#39 = DIRECTION ( 'NONE',  ( 0.000000000000000000, 0.000000000000000000, 1.000000000000000000 ) ) ;
#40 = AXIS2_PLACEMENT_3D ( 'NONE', #187, #248, #208 ) ;
#41 = LOCAL_TIME ( 14, 36, 9.000000000000000000, #212 ) ;
#42 = DIRECTION ( 'NONE',  ( 1.000000000000000000, 0.000000000000000000, 0.000000000000000000 ) ) ;
#43 = ORGANIZATION ( 'NEURÈENÝ', 'NEURÈENÝ', '' ) ;
#44 = DIRECTION ( 'NONE',  ( -1.000000000000000000, 0.000000000000000000, 0.000000000000000000 ) ) ;
#45 = CARTESIAN_POINT ( 'NONE',  ( 0.000000000000000000, 0.000000000000000000, 5.000000000000000000 ) ) ;
#46 = ORIENTED_EDGE ( 'NONE', *, *, #162, .F. ) ;
#47 = DIRECTION ( 'NONE',  ( 1.000000000000000000, 0.000000000000000000, -0.000000000000000000 ) ) ;
#48 = CARTESIAN_POINT ( 'NONE',  ( 0.000000000000000000, 0.000000000000000000, 200.0000000000000000 ) ) ;
#49 = PERSON_AND_ORGANIZATION ( #111, #43 ) ;
#50 = ORIENTED_EDGE ( 'NONE', *, *, #58, .F. ) ;
#51 = PERSON_AND_ORGANIZATION_ROLE ( 'creator' ) ;
#52 = CARTESIAN_POINT ( 'NONE',  ( 3.500000000000000000, 4.286263797015736595E-16, 5.000000000000000000 ) ) ;
#53 = PERSON_AND_ORGANIZATION ( #111, #43 ) ;
#54 = DIRECTION ( 'NONE',  ( -0.000000000000000000, -0.000000000000000000, -1.000000000000000000 ) ) ;
#55 = COORDINATED_UNIVERSAL_TIME_OFFSET ( 1, 0, .AHEAD. ) ;
#56 = AXIS2_PLACEMENT_3D ( 'NONE', #163, #237, #62 ) ;
#57 = DIRECTION ( 'NONE',  ( 1.000000000000000000, 0.000000000000000000, 0.000000000000000000 ) ) ;
#58 = EDGE_CURVE ( 'NONE', #186, #86, #177, .T. ) ;
#59 = ADVANCED_FACE ( 'NONE', ( #11 ), #155, .T. ) ;
#60 = LINE ( 'NONE', #120, #21 ) ;
#61 = AXIS2_PLACEMENT_3D ( 'NONE', #48, #83, #153 ) ;
#62 = DIRECTION ( 'NONE',  ( 1.000000000000000000, 0.000000000000000000, 0.000000000000000000 ) ) ;
#63 = MECHANICAL_CONTEXT ( 'NONE', #73, 'mechanical' ) ;
#64 = EDGE_LOOP ( 'NONE', ( #200, #206, #127, #33 ) ) ;
#65 = SECURITY_CLASSIFICATION ( '', '', #251 ) ;
#66 = CARTESIAN_POINT ( 'NONE',  ( 6.000000000000000888, 7.347880794884120722E-16, 5.000000000000000000 ) ) ;
#67 = EDGE_LOOP ( 'NONE', ( #134, #222, #16, #6 ) ) ;
#68 = ORIENTED_EDGE ( 'NONE', *, *, #157, .T. ) ;
#69 = DATE_AND_TIME ( #245, #41 ) ;
#70 = DIRECTION ( 'NONE',  ( 1.000000000000000000, 0.000000000000000000, -0.000000000000000000 ) ) ;
#71 = LINE ( 'NONE', #166, #255 ) ;
#72 = COORDINATED_UNIVERSAL_TIME_OFFSET ( 1, 0, .AHEAD. ) ;
#73 = APPLICATION_CONTEXT ( 'configuration controlled 3d designs of mechanical parts and assemblies' ) ;
#74 = CC_DESIGN_PERSON_AND_ORGANIZATION_ASSIGNMENT ( #135, #168, ( #171 ) ) ;
#75 =( GEOMETRIC_REPRESENTATION_CONTEXT ( 3 ) GLOBAL_UNCERTAINTY_ASSIGNED_CONTEXT ( ( #95 ) ) GLOBAL_UNIT_ASSIGNED_CONTEXT ( ( #97, #182, #3 ) ) REPRESENTATION_CONTEXT ( 'NONE', 'WORKASPACE' ) );
#76 = APPROVAL_PERSON_ORGANIZATION ( #230, #152, #191 ) ;
#77 = CARTESIAN_POINT ( 'NONE',  ( 0.000000000000000000, 0.000000000000000000, 0.000000000000000000 ) ) ;
#78 = ADVANCED_FACE ( 'NONE', ( #165, #7 ), #114, .T. ) ;
#79 = CARTESIAN_POINT ( 'NONE',  ( 0.000000000000000000, 0.000000000000000000, 5.000000000000000000 ) ) ;
#80 = FACE_OUTER_BOUND ( 'NONE', #67, .T. ) ;
#81 = CC_DESIGN_PERSON_AND_ORGANIZATION_ASSIGNMENT ( #53, #51, ( #213 ) ) ;
#82 = CARTESIAN_POINT ( 'NONE',  ( 0.000000000000000000, 0.000000000000000000, 5.000000000000000000 ) ) ;
#83 = DIRECTION ( 'NONE',  ( -0.000000000000000000, -0.000000000000000000, -1.000000000000000000 ) ) ;
#84 = AXIS2_PLACEMENT_3D ( 'NONE', #38, #198, #20 ) ;
#85 = EDGE_CURVE ( 'NONE', #148, #186, #211, .T. ) ;
#86 = VERTEX_POINT ( 'NONE', #52 ) ;
#87 = APPROVAL_ROLE ( '' ) ;
#88 = ADVANCED_FACE ( 'NONE', ( #93 ), #174, .F. ) ;
#89 = EDGE_LOOP ( 'NONE', ( #122, #189, #108, #242 ) ) ;
#90 = APPROVAL_DATE_TIME ( #13, #152 ) ;
#91 = EDGE_LOOP ( 'NONE', ( #68, #109 ) ) ;
#92 = LOCAL_TIME ( 14, 36, 9.000000000000000000, #72 ) ;
#93 = FACE_OUTER_BOUND ( 'NONE', #129, .T. ) ;
#94 = PERSON_AND_ORGANIZATION ( #111, #43 ) ;
#95 = UNCERTAINTY_MEASURE_WITH_UNIT (LENGTH_MEASURE( 1.000000000000000082E-05 ), #97, 'distance_accuracy_value', 'NONE');
#96 = DIRECTION ( 'NONE',  ( -0.000000000000000000, -0.000000000000000000, -1.000000000000000000 ) ) ;
#97 =( LENGTH_UNIT ( ) NAMED_UNIT ( * ) SI_UNIT ( .MILLI., .METRE. ) );
#98 = CARTESIAN_POINT ( 'NONE',  ( 0.000000000000000000, 0.000000000000000000, 0.000000000000000000 ) ) ;
#99 = PRODUCT_RELATED_PRODUCT_CATEGORY ( 'detail', '', ( #171 ) ) ;
#100 = DIRECTION ( 'NONE',  ( -1.000000000000000000, 0.000000000000000000, 0.000000000000000000 ) ) ;
#101 = EDGE_LOOP ( 'NONE', ( #50, #46 ) ) ;
#102 = AXIS2_PLACEMENT_3D ( 'NONE', #164, #234, #22 ) ;
#103 = DIRECTION ( 'NONE',  ( 1.000000000000000000, 0.000000000000000000, -0.000000000000000000 ) ) ;
#104 = VERTEX_POINT ( 'NONE', #35 ) ;
#105 = LINE ( 'NONE', #146, #252 ) ;
#106 = AXIS2_PLACEMENT_3D ( 'NONE', #229, #137, #103 ) ;
#107 = EDGE_CURVE ( 'NONE', #148, #104, #136, .T. ) ;
#108 = ORIENTED_EDGE ( 'NONE', *, *, #23, .T. ) ;
#109 = ORIENTED_EDGE ( 'NONE', *, *, #161, .T. ) ;
#110 = DATE_TIME_ROLE ( 'creation_date' ) ;
#111 = PERSON ( 'NEURÈENÝ', 'NEURÈENÝ', 'NEURÈENÝ', ('NEURÈENÝ'), ('NEURÈENÝ'), ('NEURÈENÝ') ) ;
#112 = VERTEX_POINT ( 'NONE', #145 ) ;
#113 = APPROVAL_DATE_TIME ( #69, #31 ) ;
#114 = PLANE ( 'NONE',  #215 ) ;
#115 = CC_DESIGN_DATE_AND_TIME_ASSIGNMENT ( #190, #207, ( #65 ) ) ;
#116 = DIRECTION ( 'NONE',  ( 0.000000000000000000, 0.000000000000000000, 1.000000000000000000 ) ) ;
#117 = CARTESIAN_POINT ( 'NONE',  ( -6.000000000000000888, 0.000000000000000000, 5.000000000000000000 ) ) ;
#118 = CARTESIAN_POINT ( 'NONE',  ( 0.000000000000000000, 0.000000000000000000, 200.0000000000000000 ) ) ;
#119 = FACE_OUTER_BOUND ( 'NONE', #64, .T. ) ;
#120 = CARTESIAN_POINT ( 'NONE',  ( 6.000000000000000888, 7.347880794884120722E-16, 5.000000000000000000 ) ) ;
#121 = AXIS2_PLACEMENT_3D ( 'NONE', #199, #160, #214 ) ;
#122 = ORIENTED_EDGE ( 'NONE', *, *, #128, .F. ) ;
#123 = APPLICATION_CONTEXT ( 'configuration controlled 3d designs of mechanical parts and assemblies' ) ;
#124 = CARTESIAN_POINT ( 'NONE',  ( 0.000000000000000000, 0.000000000000000000, 5.000000000000000000 ) ) ;
#125 = ORIENTED_EDGE ( 'NONE', *, *, #232, .T. ) ;
#126 = CIRCLE ( 'NONE', #221, 6.000000000000000888 ) ;
#127 = ORIENTED_EDGE ( 'NONE', *, *, #179, .T. ) ;
#128 = EDGE_CURVE ( 'NONE', #29, #28, #60, .T. ) ;
#129 = EDGE_LOOP ( 'NONE', ( #169, #8 ) ) ;
#130 = DATE_AND_TIME ( #224, #37 ) ;
#131 = CC_DESIGN_SECURITY_CLASSIFICATION ( #65, ( #213 ) ) ;
#132 = PERSON_AND_ORGANIZATION ( #111, #43 ) ;
#133 = APPLICATION_PROTOCOL_DEFINITION ( 'international standard', 'config_control_design', 1994, #123 ) ;
#134 = ORIENTED_EDGE ( 'NONE', *, *, #232, .F. ) ;
#135 = PERSON_AND_ORGANIZATION ( #111, #43 ) ;
#136 = CIRCLE ( 'NONE', #233, 3.500000000000000000 ) ;
#137 = DIRECTION ( 'NONE',  ( 0.000000000000000000, 0.000000000000000000, 1.000000000000000000 ) ) ;
#138 = PERSON_AND_ORGANIZATION ( #111, #43 ) ;
#139 = CC_DESIGN_APPROVAL ( #152, ( #65 ) ) ;
#140 = DIRECTION ( 'NONE',  ( -0.000000000000000000, -0.000000000000000000, -1.000000000000000000 ) ) ;
#141 = AXIS2_PLACEMENT_3D ( 'NONE', #79, #5, #2 ) ;
#142 = CC_DESIGN_DATE_AND_TIME_ASSIGNMENT ( #130, #110, ( #228 ) ) ;
#143 = CARTESIAN_POINT ( 'NONE',  ( -3.500000000000000000, 0.000000000000000000, 200.0000000000000000 ) ) ;
#144 = CARTESIAN_POINT ( 'NONE',  ( -3.500000000000000000, 0.000000000000000000, 5.000000000000000000 ) ) ;
#145 = CARTESIAN_POINT ( 'NONE',  ( -6.000000000000000888, 0.000000000000000000, 0.000000000000000000 ) ) ;
#146 = CARTESIAN_POINT ( 'NONE',  ( 3.500000000000000000, 4.286263797015736595E-16, 200.0000000000000000 ) ) ;
#147 = ORIENTED_EDGE ( 'NONE', *, *, #107, .F. ) ;
#148 = VERTEX_POINT ( 'NONE', #143 ) ;
#149 = CIRCLE ( 'NONE', #141, 3.500000000000000000 ) ;
#150 = DATE_AND_TIME ( #17, #253 ) ;
#151 = PERSON_AND_ORGANIZATION_ROLE ( 'classification_officer' ) ;
#152 = APPROVAL ( #10, 'NEURÈENÝ' ) ;
#153 = DIRECTION ( 'NONE',  ( -1.000000000000000000, 0.000000000000000000, 0.000000000000000000 ) ) ;
#154 = APPROVAL_DATE_TIME ( #150, #195 ) ;
#155 = CYLINDRICAL_SURFACE ( 'NONE', #61, 3.500000000000000000 ) ;
#156 = CALENDAR_DATE ( 2023, 13, 2 ) ;
#157 = EDGE_CURVE ( 'NONE', #243, #29, #159, .T. ) ;
#158 = DESIGN_CONTEXT ( 'detailed design', #123, 'design' ) ;
#159 = CIRCLE ( 'NONE', #121, 6.000000000000000888 ) ;
#160 = DIRECTION ( 'NONE',  ( 0.000000000000000000, 0.000000000000000000, 1.000000000000000000 ) ) ;
#161 = EDGE_CURVE ( 'NONE', #29, #243, #14, .T. ) ;
#162 = EDGE_CURVE ( 'NONE', #86, #186, #149, .T. ) ;
#163 = CARTESIAN_POINT ( 'NONE',  ( 0.000000000000000000, 0.000000000000000000, 0.000000000000000000 ) ) ;
#164 = CARTESIAN_POINT ( 'NONE',  ( 0.000000000000000000, 0.000000000000000000, 200.0000000000000000 ) ) ;
#165 = FACE_BOUND ( 'NONE', #101, .T. ) ;
#166 = CARTESIAN_POINT ( 'NONE',  ( -6.000000000000000888, 0.000000000000000000, 5.000000000000000000 ) ) ;
#167 = ORIENTED_EDGE ( 'NONE', *, *, #58, .T. ) ;
#168 = PERSON_AND_ORGANIZATION_ROLE ( 'design_owner' ) ;
#169 = ORIENTED_EDGE ( 'NONE', *, *, #197, .F. ) ;
#170 = SHAPE_DEFINITION_REPRESENTATION ( #254, #225 ) ;
#171 = PRODUCT ( '8b74', '8b74', '', ( #63 ) ) ;
#172 = DIRECTION ( 'NONE',  ( 0.000000000000000000, 0.000000000000000000, 1.000000000000000000 ) ) ;
#173 = PERSON_AND_ORGANIZATION_ROLE ( 'creator' ) ;
#174 = PLANE ( 'NONE',  #106 ) ;
#175 = APPROVAL_STATUS ( 'not_yet_approved' ) ;
#176 = AXIS2_PLACEMENT_3D ( 'NONE', #201, #172, #47 ) ;
#177 = CIRCLE ( 'NONE', #40, 3.500000000000000000 ) ;
#178 = FACE_OUTER_BOUND ( 'NONE', #89, .T. ) ;
#179 = EDGE_CURVE ( 'NONE', #28, #112, #126, .T. ) ;
#180 = ADVANCED_FACE ( 'NONE', ( #178 ), #25, .T. ) ;
#181 = DIRECTION ( 'NONE',  ( -0.000000000000000000, -0.000000000000000000, -1.000000000000000000 ) ) ;
#182 =( NAMED_UNIT ( * ) PLANE_ANGLE_UNIT ( ) SI_UNIT ( $, .RADIAN. ) );
#183 = CIRCLE ( 'NONE', #202, 6.000000000000000888 ) ;
#184 = CC_DESIGN_PERSON_AND_ORGANIZATION_ASSIGNMENT ( #246, #209, ( #213 ) ) ;
#185 = CARTESIAN_POINT ( 'NONE',  ( 0.000000000000000000, 0.000000000000000000, 200.0000000000000000 ) ) ;
#186 = VERTEX_POINT ( 'NONE', #144 ) ;
#187 = CARTESIAN_POINT ( 'NONE',  ( 0.000000000000000000, 0.000000000000000000, 5.000000000000000000 ) ) ;
#188 = APPROVAL_STATUS ( 'not_yet_approved' ) ;
#189 = ORIENTED_EDGE ( 'NONE', *, *, #157, .F. ) ;
#190 = DATE_AND_TIME ( #156, #92 ) ;
#191 = APPROVAL_ROLE ( '' ) ;
#192 = DIRECTION ( 'NONE',  ( -0.000000000000000000, -0.000000000000000000, -1.000000000000000000 ) ) ;
#193 = COORDINATED_UNIVERSAL_TIME_OFFSET ( 1, 0, .AHEAD. ) ;
#194 = AXIS2_PLACEMENT_3D ( 'NONE', #45, #24, #216 ) ;
#195 = APPROVAL ( #175, 'NEURÈENÝ' ) ;
#196 = CYLINDRICAL_SURFACE ( 'NONE', #249, 3.500000000000000000 ) ;
#197 = EDGE_CURVE ( 'NONE', #112, #28, #183, .T. ) ;
#198 = DIRECTION ( 'NONE',  ( 0.000000000000000000, 0.000000000000000000, 1.000000000000000000 ) ) ;
#199 = CARTESIAN_POINT ( 'NONE',  ( 0.000000000000000000, 0.000000000000000000, 5.000000000000000000 ) ) ;
#200 = ORIENTED_EDGE ( 'NONE', *, *, #161, .F. ) ;
#201 = CARTESIAN_POINT ( 'NONE',  ( 0.000000000000000000, 0.000000000000000000, 200.0000000000000000 ) ) ;
#202 = AXIS2_PLACEMENT_3D ( 'NONE', #98, #4, #42 ) ;
#203 = DIRECTION ( 'NONE',  ( -0.000000000000000000, -0.000000000000000000, -1.000000000000000000 ) ) ;
#204 = CALENDAR_DATE ( 2023, 13, 2 ) ;
#205 = COORDINATED_UNIVERSAL_TIME_OFFSET ( 1, 0, .AHEAD. ) ;
#206 = ORIENTED_EDGE ( 'NONE', *, *, #128, .T. ) ;
#207 = DATE_TIME_ROLE ( 'classification_date' ) ;
#208 = DIRECTION ( 'NONE',  ( 1.000000000000000000, 0.000000000000000000, 0.000000000000000000 ) ) ;
#209 = PERSON_AND_ORGANIZATION_ROLE ( 'design_supplier' ) ;
#210 = VECTOR ( 'NONE', #192, 1000.000000000000000 ) ;
#211 = LINE ( 'NONE', #227, #210 ) ;
#212 = COORDINATED_UNIVERSAL_TIME_OFFSET ( 1, 0, .AHEAD. ) ;
#213 = PRODUCT_DEFINITION_FORMATION_WITH_SPECIFIED_SOURCE ( 'LIBOVOLNÝ', '', #171, .NOT_KNOWN. ) ;
#214 = DIRECTION ( 'NONE',  ( 1.000000000000000000, 0.000000000000000000, 0.000000000000000000 ) ) ;
#215 = AXIS2_PLACEMENT_3D ( 'NONE', #124, #26, #70 ) ;
#216 = DIRECTION ( 'NONE',  ( -1.000000000000000000, 0.000000000000000000, 0.000000000000000000 ) ) ;
#217 = APPLICATION_PROTOCOL_DEFINITION ( 'international standard', 'config_control_design', 1994, #73 ) ;
#218 = CYLINDRICAL_SURFACE ( 'NONE', #194, 6.000000000000000888 ) ;
#219 = CARTESIAN_POINT ( 'NONE',  ( 6.000000000000000888, 7.347880794884120722E-16, 0.000000000000000000 ) ) ;
#220 = FACE_OUTER_BOUND ( 'NONE', #226, .T. ) ;
#221 = AXIS2_PLACEMENT_3D ( 'NONE', #77, #39, #235 ) ;
#222 = ORIENTED_EDGE ( 'NONE', *, *, #19, .T. ) ;
#223 = ADVANCED_FACE ( 'NONE', ( #119 ), #218, .T. ) ;
#224 = CALENDAR_DATE ( 2023, 13, 2 ) ;
#225 = ADVANCED_BREP_SHAPE_REPRESENTATION ( '8b74', ( #238, #56 ), #75 ) ;
#226 = EDGE_LOOP ( 'NONE', ( #236, #125 ) ) ;
#227 = CARTESIAN_POINT ( 'NONE',  ( -3.500000000000000000, 0.000000000000000000, 200.0000000000000000 ) ) ;
#228 = PRODUCT_DEFINITION ( 'NEZNÁMÝ', '', #213, #158 ) ;
#229 = CARTESIAN_POINT ( 'NONE',  ( 0.000000000000000000, 0.000000000000000000, 0.000000000000000000 ) ) ;
#230 = PERSON_AND_ORGANIZATION ( #111, #43 ) ;
#231 = CC_DESIGN_APPROVAL ( #31, ( #228 ) ) ;
#232 = EDGE_CURVE ( 'NONE', #104, #148, #27, .T. ) ;
#233 = AXIS2_PLACEMENT_3D ( 'NONE', #185, #116, #57 ) ;
#234 = DIRECTION ( 'NONE',  ( 0.000000000000000000, 0.000000000000000000, 1.000000000000000000 ) ) ;
#235 = DIRECTION ( 'NONE',  ( 1.000000000000000000, 0.000000000000000000, 0.000000000000000000 ) ) ;
#236 = ORIENTED_EDGE ( 'NONE', *, *, #107, .T. ) ;
#237 = DIRECTION ( 'NONE',  ( 0.000000000000000000, 0.000000000000000000, 1.000000000000000000 ) ) ;
#238 = MANIFOLD_SOLID_BREP ( 'Pøidat vysunutím3', #241 ) ;
#239 = CC_DESIGN_PERSON_AND_ORGANIZATION_ASSIGNMENT ( #138, #173, ( #228 ) ) ;
#240 = ORIENTED_EDGE ( 'NONE', *, *, #19, .F. ) ;
#241 = CLOSED_SHELL ( 'NONE', ( #244, #223, #180, #78, #88, #59, #36 ) ) ;
#242 = ORIENTED_EDGE ( 'NONE', *, *, #197, .T. ) ;
#243 = VERTEX_POINT ( 'NONE', #117 ) ;
#244 = ADVANCED_FACE ( 'NONE', ( #80 ), #196, .T. ) ;
#245 = CALENDAR_DATE ( 2023, 13, 2 ) ;
#246 = PERSON_AND_ORGANIZATION ( #111, #43 ) ;
#247 = APPROVAL_PERSON_ORGANIZATION ( #132, #195, #30 ) ;
#248 = DIRECTION ( 'NONE',  ( 0.000000000000000000, 0.000000000000000000, 1.000000000000000000 ) ) ;
#249 = AXIS2_PLACEMENT_3D ( 'NONE', #118, #96, #44 ) ;
#250 = PLANE ( 'NONE',  #176 ) ;
#251 = SECURITY_CLASSIFICATION_LEVEL ( 'unclassified' ) ;
#252 = VECTOR ( 'NONE', #54, 1000.000000000000000 ) ;
#253 = LOCAL_TIME ( 14, 36, 9.000000000000000000, #205 ) ;
#254 = PRODUCT_DEFINITION_SHAPE ( 'NONE', 'NONE',  #228 ) ;
#255 = VECTOR ( 'NONE', #203, 1000.000000000000000 ) ;
ENDSEC;
END-ISO-10303-21;
