ISO-10303-21;
HEADER;
FILE_DESCRIPTION (( 'STEP AP203' ),
    '1' );
FILE_NAME ('9003.STEP',
    '2023-02-13T09:22:15',
    ( '' ),
    ( '' ),
    'SwSTEP 2.0',
    'SolidWorks 2019',
    '' );
FILE_SCHEMA (( 'CONFIG_CONTROL_DESIGN' ));
ENDSEC;

DATA;
#1 = VERTEX_POINT ( 'NONE', #238 ) ;
#2 = DIRECTION ( 'NONE',  ( 1.000000000000000000, 0.000000000000000000, -0.000000000000000000 ) ) ;
#3 = DIRECTION ( 'NONE',  ( 1.000000000000000000, 0.000000000000000000, 0.000000000000000000 ) ) ;
#4 = PERSON_AND_ORGANIZATION ( #200, #117 ) ;
#5 =( NAMED_UNIT ( * ) PLANE_ANGLE_UNIT ( ) SI_UNIT ( $, .RADIAN. ) );
#6 = ADVANCED_FACE ( 'NONE', ( #164 ), #241, .T. ) ;
#7 = PRODUCT ( '9003', '9003', '', ( #170 ) ) ;
#8 = ORIENTED_EDGE ( 'NONE', *, *, #181, .F. ) ;
#9 = CIRCLE ( 'NONE', #131, 11.00000000000000000 ) ;
#10 = CC_DESIGN_APPROVAL ( #32, ( #173 ) ) ;
#11 = DIRECTION ( 'NONE',  ( -0.000000000000000000, -0.000000000000000000, -1.000000000000000000 ) ) ;
#12 = ORIENTED_EDGE ( 'NONE', *, *, #149, .T. ) ;
#13 = DIRECTION ( 'NONE',  ( 0.000000000000000000, 0.000000000000000000, 1.000000000000000000 ) ) ;
#14 = VECTOR ( 'NONE', #187, 1000.000000000000000 ) ;
#15 = DIRECTION ( 'NONE',  ( -0.000000000000000000, -0.000000000000000000, -1.000000000000000000 ) ) ;
#16 = PERSON_AND_ORGANIZATION ( #200, #117 ) ;
#17 = CALENDAR_DATE ( 2023, 13, 2 ) ;
#18 = PRODUCT_RELATED_PRODUCT_CATEGORY ( 'detail', '', ( #7 ) ) ;
#19 = CIRCLE ( 'NONE', #255, 7.000000000000000888 ) ;
#20 = LOCAL_TIME ( 10, 22, 15.00000000000000000, #253 ) ;
#21 = ORIENTED_EDGE ( 'NONE', *, *, #244, .T. ) ;
#22 = PERSON_AND_ORGANIZATION_ROLE ( 'creator' ) ;
#23 = CARTESIAN_POINT ( 'NONE',  ( 0.000000000000000000, 0.000000000000000000, 0.000000000000000000 ) ) ;
#24 = CARTESIAN_POINT ( 'NONE',  ( -7.000000000000000888, 0.000000000000000000, 630.0000000000000000 ) ) ;
#25 = APPLICATION_CONTEXT ( 'configuration controlled 3d designs of mechanical parts and assemblies' ) ;
#26 = VECTOR ( 'NONE', #189, 1000.000000000000000 ) ;
#27 = ORIENTED_EDGE ( 'NONE', *, *, #135, .T. ) ;
#28 = AXIS2_PLACEMENT_3D ( 'NONE', #136, #176, #3 ) ;
#29 = CIRCLE ( 'NONE', #224, 7.000000000000000888 ) ;
#30 = CARTESIAN_POINT ( 'NONE',  ( 0.000000000000000000, 0.000000000000000000, 0.000000000000000000 ) ) ;
#31 = CARTESIAN_POINT ( 'NONE',  ( 7.000000000000000888, 8.572527594031474176E-16, 630.0000000000000000 ) ) ;
#32 = APPROVAL ( #128, 'NEURÈENÝ' ) ;
#33 = DIRECTION ( 'NONE',  ( 0.000000000000000000, 0.000000000000000000, 1.000000000000000000 ) ) ;
#34 = VERTEX_POINT ( 'NONE', #85 ) ;
#35 = CIRCLE ( 'NONE', #60, 11.00000000000000000 ) ;
#36 = CARTESIAN_POINT ( 'NONE',  ( 0.000000000000000000, 0.000000000000000000, 7.000000000000000000 ) ) ;
#37 = APPROVAL_ROLE ( '' ) ;
#38 = CC_DESIGN_PERSON_AND_ORGANIZATION_ASSIGNMENT ( #4, #158, ( #106 ) ) ;
#39 = ORIENTED_EDGE ( 'NONE', *, *, #47, .F. ) ;
#40 = PRODUCT_DEFINITION_FORMATION_WITH_SPECIFIED_SOURCE ( 'LIBOVOLNÝ', '', #7, .NOT_KNOWN. ) ;
#41 = EDGE_LOOP ( 'NONE', ( #242, #127, #240, #186 ) ) ;
#42 = DIRECTION ( 'NONE',  ( -1.000000000000000000, 0.000000000000000000, 0.000000000000000000 ) ) ;
#43 = CLOSED_SHELL ( 'NONE', ( #190, #211, #218, #94, #166, #6, #100 ) ) ;
#44 = UNCERTAINTY_MEASURE_WITH_UNIT (LENGTH_MEASURE( 1.000000000000000082E-05 ), #132, 'distance_accuracy_value', 'NONE');
#45 = DIRECTION ( 'NONE',  ( 1.000000000000000000, 0.000000000000000000, -0.000000000000000000 ) ) ;
#46 = CARTESIAN_POINT ( 'NONE',  ( 0.000000000000000000, 0.000000000000000000, 7.000000000000000000 ) ) ;
#47 = EDGE_CURVE ( 'NONE', #120, #196, #139, .T. ) ;
#48 = CARTESIAN_POINT ( 'NONE',  ( 0.000000000000000000, 0.000000000000000000, 7.000000000000000000 ) ) ;
#49 = PERSON_AND_ORGANIZATION ( #200, #117 ) ;
#50 = APPLICATION_PROTOCOL_DEFINITION ( 'international standard', 'config_control_design', 1994, #180 ) ;
#51 = PERSON_AND_ORGANIZATION ( #200, #117 ) ;
#52 = LOCAL_TIME ( 10, 22, 15.00000000000000000, #192 ) ;
#53 = CALENDAR_DATE ( 2023, 13, 2 ) ;
#54 = APPROVAL_STATUS ( 'not_yet_approved' ) ;
#55 = CIRCLE ( 'NONE', #109, 11.00000000000000000 ) ;
#56 = CC_DESIGN_PERSON_AND_ORGANIZATION_ASSIGNMENT ( #74, #174, ( #40 ) ) ;
#57 =( NAMED_UNIT ( * ) SI_UNIT ( $, .STERADIAN. ) SOLID_ANGLE_UNIT ( ) );
#58 = PERSON_AND_ORGANIZATION_ROLE ( 'creator' ) ;
#59 = SHAPE_DEFINITION_REPRESENTATION ( #227, #216 ) ;
#60 = AXIS2_PLACEMENT_3D ( 'NONE', #23, #215, #191 ) ;
#61 = CARTESIAN_POINT ( 'NONE',  ( 0.000000000000000000, 0.000000000000000000, 630.0000000000000000 ) ) ;
#62 = ORIENTED_EDGE ( 'NONE', *, *, #79, .F. ) ;
#63 = CIRCLE ( 'NONE', #28, 7.000000000000000888 ) ;
#64 = DIRECTION ( 'NONE',  ( 0.000000000000000000, 0.000000000000000000, 1.000000000000000000 ) ) ;
#65 = MANIFOLD_SOLID_BREP ( 'Pøidat vysunutím3', #43 ) ;
#66 = FACE_OUTER_BOUND ( 'NONE', #237, .T. ) ;
#67 = VERTEX_POINT ( 'NONE', #188 ) ;
#68 = DIRECTION ( 'NONE',  ( -0.000000000000000000, -0.000000000000000000, -1.000000000000000000 ) ) ;
#69 = ORIENTED_EDGE ( 'NONE', *, *, #135, .F. ) ;
#70 = COORDINATED_UNIVERSAL_TIME_OFFSET ( 1, 0, .AHEAD. ) ;
#71 = LOCAL_TIME ( 10, 22, 15.00000000000000000, #206 ) ;
#72 = CARTESIAN_POINT ( 'NONE',  ( 0.000000000000000000, 0.000000000000000000, 7.000000000000000000 ) ) ;
#73 = APPROVAL_STATUS ( 'not_yet_approved' ) ;
#74 = PERSON_AND_ORGANIZATION ( #200, #117 ) ;
#75 = LINE ( 'NONE', #150, #212 ) ;
#76 = EDGE_LOOP ( 'NONE', ( #69, #81, #230, #12 ) ) ;
#77 = CARTESIAN_POINT ( 'NONE',  ( 0.000000000000000000, 0.000000000000000000, 630.0000000000000000 ) ) ;
#78 = CARTESIAN_POINT ( 'NONE',  ( 7.000000000000000888, 8.572527594031474176E-16, 7.000000000000000000 ) ) ;
#79 = EDGE_CURVE ( 'NONE', #151, #34, #55, .T. ) ;
#80 = SECURITY_CLASSIFICATION_LEVEL ( 'unclassified' ) ;
#81 = ORIENTED_EDGE ( 'NONE', *, *, #244, .F. ) ;
#82 = PERSON_AND_ORGANIZATION ( #200, #117 ) ;
#83 = EDGE_CURVE ( 'NONE', #151, #1, #245, .T. ) ;
#84 = AXIS2_PLACEMENT_3D ( 'NONE', #121, #220, #223 ) ;
#85 = CARTESIAN_POINT ( 'NONE',  ( 11.00000000000000000, 1.347111479062088405E-15, 7.000000000000000000 ) ) ;
#86 = DIRECTION ( 'NONE',  ( 1.000000000000000000, 0.000000000000000000, 0.000000000000000000 ) ) ;
#87 = CC_DESIGN_SECURITY_CLASSIFICATION ( #106, ( #40 ) ) ;
#88 = AXIS2_PLACEMENT_3D ( 'NONE', #72, #198, #114 ) ;
#89 = CARTESIAN_POINT ( 'NONE',  ( -7.000000000000000888, 0.000000000000000000, 7.000000000000000000 ) ) ;
#90 = DIRECTION ( 'NONE',  ( 1.000000000000000000, 0.000000000000000000, 0.000000000000000000 ) ) ;
#91 = DIRECTION ( 'NONE',  ( 0.000000000000000000, 0.000000000000000000, 1.000000000000000000 ) ) ;
#92 = FACE_OUTER_BOUND ( 'NONE', #165, .T. ) ;
#93 = DIRECTION ( 'NONE',  ( 0.000000000000000000, 0.000000000000000000, 1.000000000000000000 ) ) ;
#94 = ADVANCED_FACE ( 'NONE', ( #182, #147 ), #126, .T. ) ;
#95 = CALENDAR_DATE ( 2023, 13, 2 ) ;
#96 = FACE_OUTER_BOUND ( 'NONE', #167, .T. ) ;
#97 = APPLICATION_PROTOCOL_DEFINITION ( 'international standard', 'config_control_design', 1994, #25 ) ;
#98 = DIRECTION ( 'NONE',  ( 0.000000000000000000, 0.000000000000000000, 1.000000000000000000 ) ) ;
#99 = DIRECTION ( 'NONE',  ( 1.000000000000000000, 0.000000000000000000, 0.000000000000000000 ) ) ;
#100 = ADVANCED_FACE ( 'NONE', ( #96 ), #112, .T. ) ;
#101 = APPROVAL_DATE_TIME ( #254, #118 ) ;
#102 = ORIENTED_EDGE ( 'NONE', *, *, #181, .T. ) ;
#103 = CC_DESIGN_PERSON_AND_ORGANIZATION_ASSIGNMENT ( #82, #22, ( #173 ) ) ;
#104 = CARTESIAN_POINT ( 'NONE',  ( -11.00000000000000000, 0.000000000000000000, 7.000000000000000000 ) ) ;
#105 = COORDINATED_UNIVERSAL_TIME_OFFSET ( 1, 0, .AHEAD. ) ;
#106 = SECURITY_CLASSIFICATION ( '', '', #80 ) ;
#107 = ORIENTED_EDGE ( 'NONE', *, *, #207, .F. ) ;
#108 = CARTESIAN_POINT ( 'NONE',  ( -11.00000000000000000, 0.000000000000000000, 7.000000000000000000 ) ) ;
#109 = AXIS2_PLACEMENT_3D ( 'NONE', #46, #208, #86 ) ;
#110 = DIRECTION ( 'NONE',  ( -1.000000000000000000, 0.000000000000000000, 0.000000000000000000 ) ) ;
#111 = AXIS2_PLACEMENT_3D ( 'NONE', #152, #228, #110 ) ;
#112 = PLANE ( 'NONE',  #129 ) ;
#113 = VECTOR ( 'NONE', #68, 1000.000000000000000 ) ;
#114 = DIRECTION ( 'NONE',  ( 1.000000000000000000, 0.000000000000000000, 0.000000000000000000 ) ) ;
#115 = CC_DESIGN_PERSON_AND_ORGANIZATION_ASSIGNMENT ( #51, #248, ( #7 ) ) ;
#116 = AXIS2_PLACEMENT_3D ( 'NONE', #48, #33, #2 ) ;
#117 = ORGANIZATION ( 'NEURÈENÝ', 'NEURÈENÝ', '' ) ;
#118 = APPROVAL ( #73, 'NEURÈENÝ' ) ;
#119 = DESIGN_CONTEXT ( 'detailed design', #180, 'design' ) ;
#120 = VERTEX_POINT ( 'NONE', #175 ) ;
#121 = CARTESIAN_POINT ( 'NONE',  ( 0.000000000000000000, 0.000000000000000000, 630.0000000000000000 ) ) ;
#122 = CARTESIAN_POINT ( 'NONE',  ( 0.000000000000000000, 0.000000000000000000, 0.000000000000000000 ) ) ;
#123 = FACE_OUTER_BOUND ( 'NONE', #141, .T. ) ;
#124 = ORIENTED_EDGE ( 'NONE', *, *, #83, .T. ) ;
#125 = ORIENTED_EDGE ( 'NONE', *, *, #199, .F. ) ;
#126 = PLANE ( 'NONE',  #116 ) ;
#127 = ORIENTED_EDGE ( 'NONE', *, *, #207, .T. ) ;
#128 = APPROVAL_STATUS ( 'not_yet_approved' ) ;
#129 = AXIS2_PLACEMENT_3D ( 'NONE', #77, #214, #159 ) ;
#130 = CC_DESIGN_PERSON_AND_ORGANIZATION_ASSIGNMENT ( #239, #58, ( #40 ) ) ;
#131 = AXIS2_PLACEMENT_3D ( 'NONE', #36, #98, #99 ) ;
#132 =( LENGTH_UNIT ( ) NAMED_UNIT ( * ) SI_UNIT ( .MILLI., .METRE. ) );
#133 = ORIENTED_EDGE ( 'NONE', *, *, #154, .F. ) ;
#134 = CARTESIAN_POINT ( 'NONE',  ( 0.000000000000000000, 0.000000000000000000, 7.000000000000000000 ) ) ;
#135 = EDGE_CURVE ( 'NONE', #67, #234, #229, .T. ) ;
#136 = CARTESIAN_POINT ( 'NONE',  ( 0.000000000000000000, 0.000000000000000000, 630.0000000000000000 ) ) ;
#137 = AXIS2_PLACEMENT_3D ( 'NONE', #161, #15, #178 ) ;
#138 = APPROVAL_PERSON_ORGANIZATION ( #16, #118, #37 ) ;
#139 = LINE ( 'NONE', #24, #113 ) ;
#140 = AXIS2_PLACEMENT_3D ( 'NONE', #168, #246, #90 ) ;
#141 = EDGE_LOOP ( 'NONE', ( #8, #27, #204, #39 ) ) ;
#142 = CC_DESIGN_DATE_AND_TIME_ASSIGNMENT ( #156, #143, ( #173 ) ) ;
#143 = DATE_TIME_ROLE ( 'creation_date' ) ;
#144 = DIRECTION ( 'NONE',  ( 1.000000000000000000, 0.000000000000000000, 0.000000000000000000 ) ) ;
#145 = APPROVAL_ROLE ( '' ) ;
#146 = ORIENTED_EDGE ( 'NONE', *, *, #154, .T. ) ;
#147 = FACE_OUTER_BOUND ( 'NONE', #249, .T. ) ;
#148 = ORIENTED_EDGE ( 'NONE', *, *, #149, .F. ) ;
#149 = EDGE_CURVE ( 'NONE', #196, #234, #19, .T. ) ;
#150 = CARTESIAN_POINT ( 'NONE',  ( 11.00000000000000000, 1.347111479062088405E-15, 7.000000000000000000 ) ) ;
#151 = VERTEX_POINT ( 'NONE', #108 ) ;
#152 = CARTESIAN_POINT ( 'NONE',  ( 0.000000000000000000, 0.000000000000000000, 7.000000000000000000 ) ) ;
#153 = EDGE_LOOP ( 'NONE', ( #148, #210 ) ) ;
#154 = EDGE_CURVE ( 'NONE', #1, #197, #163, .T. ) ;
#155 =( GEOMETRIC_REPRESENTATION_CONTEXT ( 3 ) GLOBAL_UNCERTAINTY_ASSIGNED_CONTEXT ( ( #44 ) ) GLOBAL_UNIT_ASSIGNED_CONTEXT ( ( #132, #5, #57 ) ) REPRESENTATION_CONTEXT ( 'NONE', 'WORKASPACE' ) );
#156 = DATE_AND_TIME ( #231, #157 ) ;
#157 = LOCAL_TIME ( 10, 22, 15.00000000000000000, #70 ) ;
#158 = PERSON_AND_ORGANIZATION_ROLE ( 'classification_officer' ) ;
#159 = DIRECTION ( 'NONE',  ( 1.000000000000000000, 0.000000000000000000, -0.000000000000000000 ) ) ;
#160 = CC_DESIGN_DATE_AND_TIME_ASSIGNMENT ( #252, #233, ( #106 ) ) ;
#161 = CARTESIAN_POINT ( 'NONE',  ( 0.000000000000000000, 0.000000000000000000, 7.000000000000000000 ) ) ;
#162 = APPROVAL ( #54, 'NEURÈENÝ' ) ;
#163 = CIRCLE ( 'NONE', #140, 11.00000000000000000 ) ;
#164 = FACE_OUTER_BOUND ( 'NONE', #76, .T. ) ;
#165 = EDGE_LOOP ( 'NONE', ( #107, #62, #124, #146 ) ) ;
#166 = ADVANCED_FACE ( 'NONE', ( #66 ), #169, .F. ) ;
#167 = EDGE_LOOP ( 'NONE', ( #21, #102 ) ) ;
#168 = CARTESIAN_POINT ( 'NONE',  ( 0.000000000000000000, 0.000000000000000000, 0.000000000000000000 ) ) ;
#169 = PLANE ( 'NONE',  #225 ) ;
#170 = MECHANICAL_CONTEXT ( 'NONE', #25, 'mechanical' ) ;
#171 = CYLINDRICAL_SURFACE ( 'NONE', #111, 11.00000000000000000 ) ;
#172 = CYLINDRICAL_SURFACE ( 'NONE', #137, 11.00000000000000000 ) ;
#173 = PRODUCT_DEFINITION ( 'NEZNÁMÝ', '', #40, #119 ) ;
#174 = PERSON_AND_ORGANIZATION_ROLE ( 'design_supplier' ) ;
#175 = CARTESIAN_POINT ( 'NONE',  ( -7.000000000000000888, 0.000000000000000000, 630.0000000000000000 ) ) ;
#176 = DIRECTION ( 'NONE',  ( 0.000000000000000000, 0.000000000000000000, 1.000000000000000000 ) ) ;
#177 = DATE_AND_TIME ( #195, #71 ) ;
#178 = DIRECTION ( 'NONE',  ( -1.000000000000000000, 0.000000000000000000, 0.000000000000000000 ) ) ;
#179 = APPROVAL_DATE_TIME ( #193, #32 ) ;
#180 = APPLICATION_CONTEXT ( 'configuration controlled 3d designs of mechanical parts and assemblies' ) ;
#181 = EDGE_CURVE ( 'NONE', #67, #120, #29, .T. ) ;
#182 = FACE_BOUND ( 'NONE', #153, .T. ) ;
#183 = CYLINDRICAL_SURFACE ( 'NONE', #84, 7.000000000000000888 ) ;
#184 = APPROVAL_PERSON_ORGANIZATION ( #235, #162, #213 ) ;
#185 = DIRECTION ( 'NONE',  ( 1.000000000000000000, 0.000000000000000000, 0.000000000000000000 ) ) ;
#186 = ORIENTED_EDGE ( 'NONE', *, *, #83, .F. ) ;
#187 = DIRECTION ( 'NONE',  ( -0.000000000000000000, -0.000000000000000000, -1.000000000000000000 ) ) ;
#188 = CARTESIAN_POINT ( 'NONE',  ( 7.000000000000000888, 8.572527594031474176E-16, 630.0000000000000000 ) ) ;
#189 = DIRECTION ( 'NONE',  ( -0.000000000000000000, -0.000000000000000000, -1.000000000000000000 ) ) ;
#190 = ADVANCED_FACE ( 'NONE', ( #123 ), #183, .T. ) ;
#191 = DIRECTION ( 'NONE',  ( 1.000000000000000000, 0.000000000000000000, 0.000000000000000000 ) ) ;
#192 = COORDINATED_UNIVERSAL_TIME_OFFSET ( 1, 0, .AHEAD. ) ;
#193 = DATE_AND_TIME ( #53, #209 ) ;
#194 = DIRECTION ( 'NONE',  ( 1.000000000000000000, 0.000000000000000000, 0.000000000000000000 ) ) ;
#195 = CALENDAR_DATE ( 2023, 13, 2 ) ;
#196 = VERTEX_POINT ( 'NONE', #89 ) ;
#197 = VERTEX_POINT ( 'NONE', #226 ) ;
#198 = DIRECTION ( 'NONE',  ( 0.000000000000000000, 0.000000000000000000, 1.000000000000000000 ) ) ;
#199 = EDGE_CURVE ( 'NONE', #197, #1, #35, .T. ) ;
#200 = PERSON ( 'NEURÈENÝ', 'NEURÈENÝ', 'NEURÈENÝ', ('NEURÈENÝ'), ('NEURÈENÝ'), ('NEURÈENÝ') ) ;
#201 = APPROVAL_DATE_TIME ( #177, #162 ) ;
#202 = CC_DESIGN_APPROVAL ( #118, ( #106 ) ) ;
#203 = CIRCLE ( 'NONE', #88, 7.000000000000000888 ) ;
#204 = ORIENTED_EDGE ( 'NONE', *, *, #251, .T. ) ;
#205 = ORIENTED_EDGE ( 'NONE', *, *, #232, .T. ) ;
#206 = COORDINATED_UNIVERSAL_TIME_OFFSET ( 1, 0, .AHEAD. ) ;
#207 = EDGE_CURVE ( 'NONE', #34, #197, #75, .T. ) ;
#208 = DIRECTION ( 'NONE',  ( 0.000000000000000000, 0.000000000000000000, 1.000000000000000000 ) ) ;
#209 = LOCAL_TIME ( 10, 22, 15.00000000000000000, #105 ) ;
#210 = ORIENTED_EDGE ( 'NONE', *, *, #251, .F. ) ;
#211 = ADVANCED_FACE ( 'NONE', ( #247 ), #171, .T. ) ;
#212 = VECTOR ( 'NONE', #11, 1000.000000000000000 ) ;
#213 = APPROVAL_ROLE ( '' ) ;
#214 = DIRECTION ( 'NONE',  ( 0.000000000000000000, 0.000000000000000000, 1.000000000000000000 ) ) ;
#215 = DIRECTION ( 'NONE',  ( 0.000000000000000000, 0.000000000000000000, 1.000000000000000000 ) ) ;
#216 = ADVANCED_BREP_SHAPE_REPRESENTATION ( '9003', ( #65, #243 ), #155 ) ;
#217 = CC_DESIGN_APPROVAL ( #162, ( #40 ) ) ;
#218 = ADVANCED_FACE ( 'NONE', ( #92 ), #172, .T. ) ;
#219 = DIRECTION ( 'NONE',  ( -0.000000000000000000, -0.000000000000000000, -1.000000000000000000 ) ) ;
#220 = DIRECTION ( 'NONE',  ( -0.000000000000000000, -0.000000000000000000, -1.000000000000000000 ) ) ;
#221 = AXIS2_PLACEMENT_3D ( 'NONE', #61, #219, #42 ) ;
#222 = CARTESIAN_POINT ( 'NONE',  ( 0.000000000000000000, 0.000000000000000000, 630.0000000000000000 ) ) ;
#223 = DIRECTION ( 'NONE',  ( -1.000000000000000000, 0.000000000000000000, 0.000000000000000000 ) ) ;
#224 = AXIS2_PLACEMENT_3D ( 'NONE', #222, #64, #144 ) ;
#225 = AXIS2_PLACEMENT_3D ( 'NONE', #30, #91, #45 ) ;
#226 = CARTESIAN_POINT ( 'NONE',  ( 11.00000000000000000, 1.347111479062088405E-15, 0.000000000000000000 ) ) ;
#227 = PRODUCT_DEFINITION_SHAPE ( 'NONE', 'NONE',  #173 ) ;
#228 = DIRECTION ( 'NONE',  ( -0.000000000000000000, -0.000000000000000000, -1.000000000000000000 ) ) ;
#229 = LINE ( 'NONE', #31, #26 ) ;
#230 = ORIENTED_EDGE ( 'NONE', *, *, #47, .T. ) ;
#231 = CALENDAR_DATE ( 2023, 13, 2 ) ;
#232 = EDGE_CURVE ( 'NONE', #34, #151, #9, .T. ) ;
#233 = DATE_TIME_ROLE ( 'classification_date' ) ;
#234 = VERTEX_POINT ( 'NONE', #78 ) ;
#235 = PERSON_AND_ORGANIZATION ( #200, #117 ) ;
#236 = APPROVAL_PERSON_ORGANIZATION ( #49, #32, #145 ) ;
#237 = EDGE_LOOP ( 'NONE', ( #133, #125 ) ) ;
#238 = CARTESIAN_POINT ( 'NONE',  ( -11.00000000000000000, 0.000000000000000000, 0.000000000000000000 ) ) ;
#239 = PERSON_AND_ORGANIZATION ( #200, #117 ) ;
#240 = ORIENTED_EDGE ( 'NONE', *, *, #199, .T. ) ;
#241 = CYLINDRICAL_SURFACE ( 'NONE', #221, 7.000000000000000888 ) ;
#242 = ORIENTED_EDGE ( 'NONE', *, *, #232, .F. ) ;
#243 = AXIS2_PLACEMENT_3D ( 'NONE', #122, #13, #194 ) ;
#244 = EDGE_CURVE ( 'NONE', #120, #67, #63, .T. ) ;
#245 = LINE ( 'NONE', #104, #14 ) ;
#246 = DIRECTION ( 'NONE',  ( 0.000000000000000000, 0.000000000000000000, 1.000000000000000000 ) ) ;
#247 = FACE_OUTER_BOUND ( 'NONE', #41, .T. ) ;
#248 = PERSON_AND_ORGANIZATION_ROLE ( 'design_owner' ) ;
#249 = EDGE_LOOP ( 'NONE', ( #250, #205 ) ) ;
#250 = ORIENTED_EDGE ( 'NONE', *, *, #79, .T. ) ;
#251 = EDGE_CURVE ( 'NONE', #234, #196, #203, .T. ) ;
#252 = DATE_AND_TIME ( #95, #20 ) ;
#253 = COORDINATED_UNIVERSAL_TIME_OFFSET ( 1, 0, .AHEAD. ) ;
#254 = DATE_AND_TIME ( #17, #52 ) ;
#255 = AXIS2_PLACEMENT_3D ( 'NONE', #134, #93, #185 ) ;
ENDSEC;
END-ISO-10303-21;
